TBC

  Intro
E|-------------------------------------------------------|
B|-------------------------------------------------------|
G|-7------------------8-------------------6--------4--2--|
D|-7------------------9-------------------6--------4--2--|
A|-5------------------6-------------------4--------2--0--|
E|-------------------------------------------------------|

Verse Pre-Chorus
E|--------------------------------------------------------------------------||-------------
B|--------------------------------------------------------------------------||-------------
G|--------------------------------------------------------------------------||-------------
D|--------------------------------------------------------------------------||-------------
A|----14---14---14---14---14---14---14---14--12--11--9---7---7---7---7---7--||-------------
E|-012--012--012--012--011--011--011--011--09--09--07--05--04--05--04--05---||-12//////////
pickslide
Chours Part 1
E|-------------------------------------------------
B|-------------------------------------------------
G|-------------------------------------------------
D|-------------------------------------------------
A|-7-77-0h6h7p0-2-22-0h2h4p0-4-44-2h4p2-4-44-2h4p2-
E|-5-55---------0-00---------2-22-------2-22-------
P P P
M M M

Chorus Part 2
E|-------------------------------------------------
B|-------------------------------------------------
G|-------------------------------------------------
D|-------9~-----------4~---------------------------
A|-7-7-7---7~---2-2-2---2~---4-44-2h4p2-4-44-2h4p2-
E|-5-5-5-----5~-0-0-0-----0~-2-22-------2-22-------
Guitar Tab Creator is intended to store guitar tab created through the tool. It currently does not support in-line text editing. Any text you place in here will be lost. If you need to comment on your tab, please use the "Tab Notes" section located below.