Les Fleurs de Vie

Les Fleurs de Vie

Main Riff (Verse
E|---------------------------------------------------------------------------------------
B|---------------------------------------------------------------------------------------
G|---------------------------------------------------------------------------------------
D|---------------------------------------------------------------------------------------
A|---------14------14------14------14------14------14------14------14-----12-----11-----9
E|----0-12----0-12----0-12----0-12----0-11----0-11----0-11----0-11----0-9----0-9----0-7--

E|-------------------------------
B|-------------------------------
G|-------------------------------
D|-------------------------------
A|--------7-----7-----7-----7---7
E|----0-5---0-4---0-5---0-4---0-5 x like 8 or somehting i don't know


Chorus
E|--------------------------------------------------
B|--------------------------------------------------
G|--------------------------------------------------
D|-------0h6h7p0------0h2h4p0-----------------------
A|--7-77---------2-22---------4-44-2h4p2-4-44-2h4p2-
E|--5-55---------0-00---------2-22-------2-22------- x2


E|----------------------------------------------
B|----------------------------------------------
G|----------------------------------------------
D|--7-7-7-9-----1-1-1-4-------------------------
A|--7-7-7---7---2-2-2---2--4-44-2h4p2-4-44-2h4p2
E|--5-5-5-----5-0-0-0----0-2-22-------2-22------ x2
Guitar Tab Creator is intended to store guitar tab created through the tool. It currently does not support in-line text editing. Any text you place in here will be lost. If you need to comment on your tab, please use the "Tab Notes" section located below.