Georgia On My Mind

(/) Slide Up  (\) Slide Down  (h) Hammer On  (p) Pull Off  (b) Bend (r) Release (v) Vibrato

E|---x---(8)--------x--------------x-------(5)-------(10)------------7--------x------------
B|--(10)-----------(10)-(8)-------(8)-------6---------x---(10)-------8-------(10)-(8)------
G|---9--------------7--------------6--------5---------10-------------7--------8------------
D|---8--------------8--------------5--------5---------10-------------9--------7------------
A|---8--------------7--------------x--------5---------x--------------10-------x------------
E|---x--------------x--------------5--------x---------8--------------7--------8------------



E|---x---(8)------(12)-(10)------x---(10)-------x-------------(8)-----(8)-----(10)------x--
B|--(10)-----------10-----------(11)-----------(10)-(8)--------5-------7-------11------(9)-
G|---9-------------11------------10-------------9--------------5-------5-------10-------9--
D|---8-------------10------------x--------------8--------------5-------x-------x--------8--
A|---8-------------x-------------10-------------x--------------x-------5-------10-------x--
E|---x-------------10------------x--------------x--------------5-------x-------x--------8--



E|---x---(8)--------x--------------x-------(5)-------(10)------------7--------x------------
B|--(10)-----------(10)-(8)-------(8)-------6---------x---(10)-------8-------(10)-(8)------
G|---9--------------7--------------6--------5---------10-------------7--------8------------
D|---8--------------8--------------5--------5---------10-------------9--------7------------
A|---8--------------7--------------x--------5---------x--------------10-------x------------
E|---x--------------x--------------5--------x---------8--------------7--------8------------



E|---x---(8)-------(12)-(10)
B|--(10)------------10------
G|---9--------------11------
D|---8--------------10------
A|---8--------------x-------
E|---x--------------10------

E|---x---(8)-------(12)-(10)
B|--(10)------------10------
G|---9--------------11------
D|---8--------------10------
A|---8--------------x-------
E|---x--------------10------

http://www.guitartabcreator.com
Guitar Tab Creator is intended to store guitar tab created through the tool. It currently does not support in-line text editing. Any text you place in here will be lost. If you need to comment on your tab, please use the "Tab Notes" section located below.