Obituary

(/) Slide Up  (\) Slide Down  (h) Hammer On  (p) Pull Off  (b) Bend (r) Release (v) Vibrato


E|--------------------------------------------------------------------------
B|--------------------------------------------------------------------------
G|--------------------------------------------------------------------------
D|--------------------------------------------------------------------------
A|-----4--5--4-----------------------------4--5--4--------------------------
E|--2-----------5--4--2--4--0--0--0--0--2-----------5--4--2--4--0--0--0--0--



E|--------------------------------------------------------------------------------------------
B|--------------------------------------------------------------------------------------------
G|--------------------------------------------------------------------------------------------
D|--------------------------------------------------------------------------------------------
A|--------------------4-----------------5--4--2--------------------4-----------------5--4--2--
E|--0--0--0--0--0--2-----0--0--0--0--0-----------0--0--0--0--0--2-----0--0--0--0--0-----------



E|-----------------------------------------------------------------------------------
B|-----------------------------------------------------------------------------------
G|-----------------------------------------------------------------------------------
D|-----------------------------------------------------------------------------------
A|--------------4--------------5-----------------------------------7--5--------------
E|--0--0--0--0--2--0--0--0--0--3--0--0--0--0--0--2--3--0--0--0--0--5--3--0--0--0--0--
http://www.guitartabcreator.com
Guitar Tab Creator is intended to store guitar tab created through the tool. It currently does not support in-line text editing. Any text you place in here will be lost. If you need to comment on your tab, please use the "Tab Notes" section located below.