Last Breath

(/) Slide Up  (\) Slide Down  (h) Hammer On  (p) Pull Off  (b) Bend (r) Release (v) Vibrato


E|--------------------------------------------------------------------------------
B|--------------------------------------------------------------------------------
G|--------------------------------------------------------------------------------
D|-----4--7-----------7--6--4-----------------4--7-----------7--6--4--------------
A|--6--------------------------6-----------6--------------------------6-----------
E|-----------0--0--0--------------0--0--0-----------0--0--0--------------0--0--0--



E|-----------------------------------
B|-----------------------------------
G|-----------------------------------
D|--------7--6--5--4-----4--4--3-----
A|--5--7--------------5-----------4--
E|-----------------------------------



E|-----------------------------------------------
B|-----------------------------------------------
G|-----------------------------------------------
D|--------5--------7--5--------5--------3--5-----
A|--------7--------9--7--------7--------5--7-----
E|--0--0-----0--0--------0--0-----0--0-----------



E|-----------------------------------------------------------------------------------
B|-----------------------------------------------------------------------------------
G|-----------------------------------------------------------------------------------
D|-----------7--6--5-----------7--6--5-----------7--6--5-----------7--6--5-----------
A|-----------5--4--3-----------5--4--3-----------5--4--3-----------5--4--3-----------
E|--0--0--0-----------0--0--0-----------0--0--0-----------0--0--0-----------0--0--0--
http://www.guitartabcreator.com
Guitar Tab Creator is intended to store guitar tab created through the tool. It currently does not support in-line text editing. Any text you place in here will be lost. If you need to comment on your tab, please use the "Tab Notes" section located below.