Death or Victory

(/) Slide Up  (\) Slide Down  (h) Hammer On  (p) Pull Off  (b) Bend (r) Release (v) Vibrato

E|----------------------------------------------------------------------
B|----------------------------------------------------------------------
G|----------------------------------------------------------------------
D|--7--9--7-------------------------------------------------------------
A|-----------9--7--8--9--8--7-----------9--11--9--------------9--11--9--
E|-----------------------------9--8--7--7--9---7--0--0--0--0--7--9---7--



E|------------------------------------------------------------------------------------
B|------------------------------------------------------------------------------------
G|------------------------------------------------------------------------------------
D|--7--9--7------------7--9--7---------------7--9--7------------7--9--7---------------
A|-----------9--9--11-----------9--9--11--9-----------9--9--11-----------9--9--11--9--
E|--------------7--9---------------7--9---7--------------7--9---------------7--9---7--



E|-----------------------------------------------------------------------
B|-----------------------------------------------------------------------
G|-----------------------------------------------------------------------
D|-----------------------------------------------------------------------
A|-----------------------------2-----------------------2--3--2-----4--5--
E|--2--2--2--2--5--2--2--2--2-----2--2--2--2--5--2--5-----------3--2--3--



E|-----------------------------------------------------------------------------
B|-----------------------------------------------------------------------------
G|-----------------------------------------------------------------------------
D|-----------------------------------------------------------------------------
A|-----------------------------2-----------------------------2-----------------
E|--2--2--2--2--5--2--2--2--2-----2--2--2--2--5--2--2--2--2-----2--2--2--2--5--



E|----------------------------------------------------------
B|----------------------------------------------------------
G|----------------------------------------------------------
D|----------------------------------------------------------
A|--------------9--11--9--------------9--11--9--------------
E|--0--0--0--0--7--9---7--0--0--0--0--7--9---7--0--0--0--0--
http://www.guitartabcreator.com
Guitar Tab Creator is intended to store guitar tab created through the tool. It currently does not support in-line text editing. Any text you place in here will be lost. If you need to comment on your tab, please use the "Tab Notes" section located below.