Death or Victory

(/) Slide Up  (\) Slide Down  (h) Hammer On  (p) Pull Off  (b) Bend (r) Release (v) Vibrato
E|--------------------------------------------
B|--------------------------------------------
G|--------------------------------------------
D|-----------------------5--7--5--------------
A|--7--5--7--5-----5--7-----------7--5-----5--
E|--------------7-----------------------7-----



E|-----------------------------------------------------------------------------
B|-----------------------------------------------------------------------------
G|-----------------------------------------------------------------------------
D|--------------------5--7--5-----------------------5--7--5--------------------
A|-----------------5--5--7--5--7-----------------5--5--7--5--7-----------------
E|--0--0--0--0--0--5-----------7--0--0--0--0--0--5-----------7--0--0--0--0--0--



E|-----------------------------------------------------------------------------------------
B|-----------------------------------------------------------------------------------------
G|-----------------------------------------------------------------------------------------
D|-----------------------------------------------------------------------------------------
A|-----------------4--3--2-----------------4--3--2-----------------4--3--2-----------------
E|--0--0--0--0--0--5--4--3--0--0--0--0--0--5--4--3--0--0--0--0--0--5--4--3--0--0--0--0--0--



E|--12--14--15--14--12--14--15--14--12--14--15--14--12--14--15--14--
B|------------------------------------------------------------------
G|------------------------------------------------------------------
D|------------------------------------------------------------------
A|------------------------------------------------------------------
E|------------------------------------------------------------------



E|--12--12--15--16--15--12----------
B|--------------------------15------
G|------------------------------16--
D|----------------------------------
A|----------------------------------
E|----------------------------------



E|--------------------------------------------------------------
B|--------------------------------------------------------------
G|--13--15--16--15--13------------------------------------------
D|----------------------15----------14--15--17--14--15--17--15--
A|--------------------------16--14------------------------------
E|--------------------------------------------------------------



E|--15--17--19--17--15------15--17--19--17--15------15--17--19--17--15------15--17--19--17--15------
B|----------------------17----------------------17----------------------17----------------------17--
G|--------------------------------------------------------------------------------------------------
D|--------------------------------------------------------------------------------------------------
A|--------------------------------------------------------------------------------------------------
E|--------------------------------------------------------------------------------------------------
http://www.guitartabcreator.com
Guitar Tab Creator is intended to store guitar tab created through the tool. It currently does not support in-line text editing. Any text you place in here will be lost. If you need to comment on your tab, please use the "Tab Notes" section located below.