Black death

(/) Slide Up  (\) Slide Down  (h) Hammer On  (p) Pull Off  (b) Bend (r) Release (v) Vibrato


E|--17--15--12----------19--21--17--19--17--21--19--17--------------
B|--------------15--12----------------------------------18----------
G|----------------------------------------------------------17------
D|--------------------------------------------------------------19--
A|------------------------------------------------------------------
E|------------------------------------------------------------------



E|-----------------------------------------------------------------------------
B|-----------------------------------------------------------------------------
G|-----------------------------------------------------------------------------
D|-----------------------------------------------------------------------------
A|-----------------3-----------------5--------------------------------------3--
E|--0--0--0--0--0--1--0--0--0--0--0--3--0--0--0--0--3--1--2--0--0--0--0--0--1--



E|-----------------------------------------------------------------------
B|--------------------------------------9--------------------------------
G|-----------------------------------7-----7-----------------------------
D|--------------------------5--7--8-----------8--7-----------------------
A|-----------------------6--------------------------8--6-----------------
E|--0--0--0--0--0--5--7-----------------------------------0--0--0--0--0--
http://www.guitartabcreator.com
Guitar Tab Creator is intended to store guitar tab created through the tool. It currently does not support in-line text editing. Any text you place in here will be lost. If you need to comment on your tab, please use the "Tab Notes" section located below.