3

(/) Slide Up  (\) Slide Down  (h) Hammer On  (p) Pull Off  (b) Bend (r) Release (v) Vibrato


E|--------------
B|--------------
G|--------------
D|--7--5--3-----
A|--5--3--1--3--
E|-----------1--



E|-----------------------------------------------
B|-----------------------------------------------
G|-----------------------------------------------
D|--7--9--7--------------------------------7--9--
A|-----------9--7--8--9--8--7-----7--8--9--------
E|-----------------------------9-----------------



E|--------------------------------------------------------------------------------------------------------
B|--------------------------------------------------------------------------------------------------------
G|--------------------------------------------------------------------------------------------------------
D|--------------------------------------5--------------------------------------7--------------------------
A|--------------------------------------3--------------------------------------5--------------------------
E|--0--0--0--0--0--0--0--0--0--0--0--0-----0--0--0--0--0--0--0--0--0--0--0--0-----0--0--0--0--0--0--0--0--



E|--------------
B|--------------
G|--------------
D|--------------
A|--5--7--7--9--
E|--5--7--5--7--
http://www.guitartabcreator.com
Guitar Tab Creator is intended to store guitar tab created through the tool. It currently does not support in-line text editing. Any text you place in here will be lost. If you need to comment on your tab, please use the "Tab Notes" section located below.