bvb new religion

(/) Slide Up  (\) Slide Down  (h) Hammer On  (p) Pull Off  (b) Bend (r) Release (v) Vibrato

New Religion by BVB

D#|-------------------------------------------------------------------
G#|-------------------------------------------------------------------
C#|-------------------------------------------------------------------
F#|--------------------------8-7--------------------------------------
A#|---------5---3---5------------10-9---------5---3-------------------
C#|-0-0-0-0---0---0---0-0-0-----------0-0-0-0---0---0-0-3-5-6-5-3-0-3-

----------------------------------------------------------------------
----------------------------------------------------------------------
------------------------------------------6-7-6---6-------------------
--------------------------8-7---------7-8-------8---------------------
---------5---3---5------------10-9-10---------------------------------
-0-0-0-0---0---0---0-0-0----------------------------------------------

-11p10p8--------------------------------------------------------------
---------11p10p8------------------------------------------------------
-----------------11p9p8-----------------------------------------------
------------------------10p8p7----------------------------------------
----------------------------------------------------------------------
----------------------------------------------------------------------


----------------------------------------------------------------------
----------------------------------------------------------------------
----------------------------------------------------------------------
----------------------------------------------------------------------
-----------------3-0--------------------------------------------------
-0-0-0-0-0-0---0-----5-3-0-3-5-3---3-5-3-6-5-3-7-6-5-3-0-3-5----------

----------------------------------------------------------------------
----------------------------------------------------------------------
----------------------------------------------------------------------
-----------------0/7-5------------------------------------------------
----------------------------------------------------------------------
-0-0-0-0-0-0---0------------------------------------------------------

Guitar Tab Creator is intended to store guitar tab created through the tool. It currently does not support in-line text editing. Any text you place in here will be lost. If you need to comment on your tab, please use the "Tab Notes" section located below.