Fields of Gold -- Eva Cassidy

(/) Slide Up  (\) Slide Down  (h) Hammer On  (p) Pull Off  (b) Bend (r) Release (v) Vibrato
E|--------------|--------------|--------------|--------------|--
B|--3-----------|--3-----------|--0--------0--|-----------0--|--
G|--------4-----|--------4-----|--------2-----|--------2-----|--
D|-----4-----4--|-----4-----4--|-----0--------|-----0--------|--
A|--2-----------|--0-----------|--------------|--------------|--
E|--------------|--------------|--3-----------|--3-----------|--



E|--------------|--2h3-----------|--2-----------|--2----------|-----
B|--------3-----|-------3-----3--|--------2-----|-------------|-----
G|-----2-----2--|----------2-----|-----3-----3--|-------------|-----
D|--0-----------|----------------|--0-----------|--0----------|-----
A|--------------|----------------|--------------|-------------|-----
E|--------------|----------------|--------------|-------------|-----



E|--
B|--
G|--
D|--
A|--
E|--



E|--------------|--------------|--------------|----------------|--
B|--3-----------|--3-----3-----|--0--------0--|----------------|--
G|--------4-----|--------------|--------2-----|--------0--0h2--|--
D|-----4-----4--|-----4-----4--|-----0--------|-----0----------|--
A|--2-----------|--2-----0-----|--------------|----------------|--
E|--------------|--------------|--3-----------|--3-------------|--



E|--------------|--------------|--------------|--2-----------|--
B|--0--------0--|-----------2--|--------3-----|--------------|--
G|--------2-----|--------2-----|-----2-----2--|-----2-----2--|--
D|-----0--------|-----2--------|--0-----------|--0-----------|--
A|--------------|--0-----------|--------------|--------4-----|--
E|--3-----------|--------------|--------------|--------------|--



E|--------------|--------------|--------------|--------------|--
B|--3-----------|--3-----3-----|--0-----------|--3-----------|--
G|--------4-----|--------------|--------2-----|--------2-----|--
D|-----4-----4--|-----4-----4--|-----0-----0--|-----0-----0--|--
A|--2-----------|--2-----0-----|--------------|--------------|--
E|--------------|--------------|--3-----------|--2-----------|--



E|--------------|--------------|--------------|--2----------|--
B|--0--------0--|-----------2--|--------3-----|-------------|--
G|--------0-----|--------2-----|-----2-----2--|-------------|--
D|-----0--------|-----2--------|--0-----------|--0----------|--
A|--------------|--0-----------|--------------|-------------|--
E|--0-----------|--------------|--------------|-------------|--



E|--
B|--
G|--
D|--
A|--
E|--



E|--------------|--------------|--------------|----------------|--
B|--3-----------|--3-----3-----|--0--------0--|----------------|--
G|--------4-----|--------------|--------2-----|--------0--0h2--|--
D|-----4-----4--|-----4-----4--|-----0--------|-----0----------|--
A|--2-----------|--2-----0-----|--------------|----------------|--
E|--------------|--------------|--3-----------|--3-------------|--



E|--------------|--------------|--------------|--2-----------|--
B|--0--------0--|-----------2--|--------3-----|--------------|--
G|--------2-----|--------2-----|-----2-----2--|-----2-----2--|--
D|-----0--------|-----2--------|--0-----------|--0-----------|--
A|--------------|--0-----------|--------------|--------4-----|--
E|--3-----------|--------------|--------------|--------------|--



E|--------------|--------------|--------------|--------------|--
B|--3-----------|--3-----3-----|--0-----------|--3-----------|--
G|--------4-----|--------------|--------2-----|--------2-----|--
D|-----4-----4--|-----4-----4--|-----0-----0--|-----0-----0--|--
A|--2-----------|--2-----0-----|--------------|--------------|--
E|--------------|--------------|--3-----------|--2-----------|--



E|--------------|--------------|--------------|--2----------|--
B|--0--------0--|-----------2--|--------3-----|-------------|--
G|--------0-----|--------2-----|-----2-----2--|-------------|--
D|-----0--------|-----2--------|--0-----------|--0----------|--
A|--------------|--0-----------|--------------|-------------|--
E|--0-----------|--------------|--------------|-------------|--



E|--
B|--
G|--
D|--
A|--
E|--



E|--------------|--------------|--------------|----------------|--
B|--3-----------|--3-----3-----|--0--------0--|----------------|--
G|--------4-----|--------------|--------2-----|--------0--0h2--|--
D|-----4-----4--|-----4-----4--|-----0--------|-----0----------|--
A|--2-----------|--2-----0-----|--------------|----------------|--
E|--------------|--------------|--3-----------|--3-------------|--



E|--------------|--------------|--------------|--2-----------|--
B|--0--------0--|-----------2--|--------3-----|--------------|--
G|--------2-----|--------2-----|-----2-----2--|-----2-----2--|--
D|-----0--------|-----2--------|--0-----------|--0-----------|--
A|--------------|--0-----------|--------------|--------4-----|--
E|--3-----------|--------------|--------------|--------------|--



E|--------------|--------------|--------------|--------------|--
B|--3-----------|--3-----3-----|--0-----------|--3-----------|--
G|--------4-----|--------------|--------2-----|--------2-----|--
D|-----4-----4--|-----4-----4--|-----0-----0--|-----0-----0--|--
A|--2-----------|--2-----0-----|--------------|--------------|--
E|--------------|--------------|--3-----------|--2-----------|--



E|--------------|--------------|--------2h3-----|--2-----0-----|--
B|--0--------3--|-----------2--|-------------3--|--------------|--
G|--------0-----|--------2-----|-----2----------|-----2-----2--|--
D|-----0--------|-----2--------|--0-------------|--0-----------|--
A|--------------|--0-----------|----------------|--------------|--
E|--0-----------|--------------|----------------|--------2-----|--



E|--
B|--
G|--
D|--
A|--
E|--



E|--------------|--------------|--------------|--------------|--
B|--3--------3--|--------------|-----------2--|--------3-----|--
G|--------2-----|--------2-----|--------2-----|-----2--------|--
D|-----0--------|-----0-----0--|-----2--------|--0--------0--|--
A|--------------|--------------|--0-----------|--------------|--
E|--3-----------|--3-----------|--------------|--------2-----|--



E|--------------|--------------|--------------|--------------|--
B|--3--------3--|--------------|-----------2--|--------3-----|--
G|--------2-----|--------2-----|--------2-----|-----2--------|--
D|-----0--------|-----0-----0--|-----2--------|--0--------0--|--
A|--------------|--------------|--0-----------|--------------|--
E|--3-----------|--3-----------|--------------|--------2-----|--



E|--------------|--------------|--------------|--------------|--
B|--3--------3--|-----------3--|-----------2--|--3-----3-----|--
G|--------2-----|--------2-----|--------2-----|--------------|--
D|-----0--------|-----0--------|-----2--------|-----4-----4--|--
A|--------------|--------------|--0-----------|--2-----0-----|--
E|--3-----------|--3-----------|--------------|--------------|--



E|--------------|--------------|--------------|--------------|--
B|--0--------0--|-----------2--|--3-----------|--3-----------|--
G|--------2-----|--------2-----|--------4-----|--------4-----|--
D|-----0--------|-----2--------|-----4-----4--|-----4-----4--|--
A|--------------|--0-----------|--2-----------|--0-----------|--
E|--3-----------|--------------|--------------|--------------|--



E|--------------|--------------|--------------|--2-----------|--
B|--0--------0--|-----------2--|--3-----3-----|--------------|--
G|--------2-----|--------2-----|-----2-----2--|-----2-----2--|--
D|-----0--------|-----2--------|--0-----------|--0-----------|--
A|--------------|--0-----------|--------------|--------4-----|--
E|--3-----------|--------------|--------------|--------------|--



E|--
B|--
G|--
D|--
A|--
E|--



E|--------------|--------------|--------------|--------------|--
B|--3--------3--|--------------|-----------2--|--------3-----|--
G|--------2-----|--------2-----|--------2-----|-----2--------|--
D|-----0--------|-----0-----0--|-----2--------|--0--------0--|--
A|--------------|--------------|--0-----------|--------------|--
E|--3-----------|--3-----------|--------------|--------2-----|--



E|--------------|--------------|--------------|--------------|--
B|--3--------3--|--------------|-----------2--|--------3-----|--
G|--------2-----|--------2-----|--------2-----|-----2--------|--
D|-----0--------|-----0-----0--|-----2--------|--0--------0--|--
A|--------------|--------------|--0-----------|--------------|--
E|--3-----------|--3-----------|--------------|--------2-----|--



E|--------------|--------------|--------------|--------------|--
B|--3--------3--|-----------3--|-----------2--|--3-----3-----|--
G|--------2-----|--------2-----|--------2-----|--------------|--
D|-----0--------|-----0--------|-----2--------|-----4-----4--|--
A|--------------|--------------|--0-----------|--2-----0-----|--
E|--3-----------|--3-----------|--------------|--------------|--



E|--------------|--------------|--------------|--------------|--
B|--0--------0--|-----------2--|--3-----------|--3-----------|--
G|--------2-----|--------2-----|--------4-----|--------4-----|--
D|-----0--------|-----2--------|-----4-----4--|-----4-----4--|--
A|--------------|--0-----------|--2-----------|--0-----------|--
E|--3-----------|--------------|--------------|--------------|--



E|--------------|--------------|--------------|--------------|--
B|--0--------0--|-----------2--|--------3-----|--2-----------|--
G|--------2-----|--------2-----|-----2-----2--|-----2-----2--|--
D|-----0--------|-----2--------|--0-----------|--0-----------|--
A|--------------|--0-----------|--------------|--------4-----|--
E|--3-----------|--------------|--------------|--------------|--



E|--
B|--
G|--
D|--
A|--
E|--



E|--------------|--------------|--------------|--------------|--
B|--3-----------|--3-----------|--0--------0--|-----------0--|--
G|--------4-----|--------4-----|--------2-----|--------2-----|--
D|-----4-----4--|-----4-----4--|-----0--------|-----0--------|--
A|--2-----------|--0-----------|--------------|--------------|--
E|--------------|--------------|--3-----------|--3-----------|--



E|--------------|--2h3-----------|--2-----------|--2-----------|--
B|--------3-----|-------3-----3--|--------2-----|--------------|--
G|-----2-----2--|----------2-----|-----3-----3--|-----2-----2--|--
D|--0-----------|----------------|--0-----------|--0-----------|--
A|--------------|----------------|--------------|--------4-----|--
E|--------------|----------------|--------------|--------------|--



E|--
B|--
G|--
D|--
A|--
E|--



E|--------------|--------------|--------------|----------------|--
B|--3-----------|--3-----3-----|--0--------0--|----------------|--
G|--------4-----|--------------|--------2-----|--------0--0h2--|--
D|-----4-----4--|-----4-----4--|-----0--------|-----0----------|--
A|--2-----------|--2-----0-----|--------------|----------------|--
E|--------------|--------------|--3-----------|--3-------------|--



E|--------------|--------------|--------------|--2-----------|--
B|--0--------0--|-----------2--|--------3-----|--------------|--
G|--------2-----|--------2-----|-----2-----2--|-----2-----2--|--
D|-----0--------|-----2--------|--0-----------|--0-----------|--
A|--------------|--0-----------|--------------|--------4-----|--
E|--3-----------|--------------|--------------|--------------|--



E|--------------|--------------|--------------|--------------|--
B|--3-----------|--3-----3-----|--0-----------|--3-----------|--
G|--------4-----|--------------|--------2-----|--------2-----|--
D|-----4-----4--|-----4-----4--|-----0-----0--|-----0-----0--|--
A|--2-----------|--2-----0-----|--------------|--------------|--
E|--------------|--------------|--3-----------|--2-----------|--



E|--------------|--------------|--------------|--2----------|--
B|--0--------0--|-----------2--|--------3-----|-------------|--
G|--------0-----|--------2-----|-----2-----2--|-------------|--
D|-----0--------|-----2--------|--0-----------|--0----------|--
A|--------------|--0-----------|--------------|-------------|--
E|--0-----------|--------------|--------------|-------------|--



E|--
B|--
G|--
D|--
A|--
E|--



E|--------------|--------------|--------------|----------------|--
B|--3-----------|--3-----3-----|--0--------0--|----------------|--
G|--------4-----|--------------|--------2-----|--------0--0h2--|--
D|-----4-----4--|-----4-----4--|-----0--------|-----0----------|--
A|--2-----------|--2-----0-----|--------------|----------------|--
E|--------------|--------------|--3-----------|--3-------------|--



E|--------------|--------------|--------------|--2-----------|--
B|--0--------0--|-----------2--|--------3-----|--------------|--
G|--------2-----|--------2-----|-----2-----2--|-----2-----2--|--
D|-----0--------|-----2--------|--0-----------|--0-----------|--
A|--------------|--0-----------|--------------|--------4-----|--
E|--3-----------|--------------|--------------|--------------|--



E|--------------|--------------|--------------|--------------|--
B|--3-----------|--3-----3-----|--0-----------|--3-----------|--
G|--------4-----|--------------|--------2-----|--------2-----|--
D|-----4-----4--|-----4-----4--|-----0-----0--|-----0-----0--|--
A|--2-----------|--2-----0-----|--------------|--------------|--
E|--------------|--------------|--3-----------|--2-----------|--



E|--------------|--------------|--------2h3-----|--2-----------|--
B|--0--------3--|-----------2--|-------------3--|--------3-----|--
G|--------0-----|--------2-----|-----2----------|-----2--------|--
D|-----0--------|-----2--------|--0-------------|--0--------0--|--
A|--------------|--0-----------|----------------|--------------|--
E|--0-----------|--------------|----------------|--------2-----|--



E|--------------|--------------|--------------|--------------|--
B|--3--------3--|-----------2--|--3-----------|--3-----------|--
G|--------2-----|--------2-----|--------4-----|--------4-----|--
D|-----0--------|-----2--------|-----4-----4--|-----4-----4--|--
A|--------------|--0-----------|--2-----------|--0-----------|--
E|--3-----------|--------------|--------------|--------------|--



E|--------------|-------------|--------------|--2-----------|--
B|--0--------0--|-------------|--------3-----|--------3-----|--
G|--------2-----|-------------|-----2-----2--|-----2-----2--|--
D|-----0--------|-------------|--0-----------|--0-----------|--
A|--------------|--0----------|--------------|--------------|--
E|--3-----------|-------------|--------------|--------------|--



E|--
B|--
G|--
D|--
A|--
E|--



E|--------------|--------------|--------------|--------------|--
B|--3-----------|--3-----------|--0--------0--|-----------0--|--
G|--------4-----|--------4-----|--------2-----|--------2-----|--
D|-----4-----4--|-----4-----4--|-----0--------|-----0--------|--
A|--2-----------|--0-----------|--------------|--------------|--
E|--------------|--------------|--3-----------|--3-----------|--



E|--------------|--2h3-----0-----|-----------2--|--------------|-----
B|--------3-----|-------3--------|--------3-----|--------------|-----
G|-----2-----2--|-------------2--|-----2--------|--------------|-----
D|--0-----------|----------------|--0-----------|--------------|-----
A|--------------|----------------|--------------|--------------|-----
E|--------------|----------------|--------------|--------------|-----
http://www.guitartabcreator.com
Guitar Tab Creator is intended to store guitar tab created through the tool. It currently does not support in-line text editing. Any text you place in here will be lost. If you need to comment on your tab, please use the "Tab Notes" section located below.