A minor Pentatonic Motive Pattern with blue note

(/) Slide Up  (\) Slide Down  (h) Hammer On  (p) Pull Off  (b) Bend (r) Release (v) Vibrato


E|--8--5-----5-----------------------
B|--------8-----8--5-----5-----------
G|--------------------7-----7--5-----
D|--------------------------------7--
A|-----------------------------------
E|-----------------------------------



E|--------------------|--------------------------|--|--
B|-----------5--------|-----------5--------------|--|--
G|-----5--7-----5-----|-----5--7-----8--7--5-----|--|--
D|--7--------------7--|--7--------------------7--|--|--
A|--------------------|--------------------------|--|--
E|--------------------|--------------------------|--|--



E|-----------------------------------------5-----5--8--5--------------------
B|-----------------------5-----5--8--5--8-----8-----------8--5--------------
G|-----5-----5--7--5--7-----7-----------------------------------7--5--------
D|--7-----7-----------------------------------------------------------7-----
A|--------------------------------------------------------------------------
E|--------------------------------------------------------------------------
http://www.guitartabcreator.com
Guitar Tab Creator is intended to store guitar tab created through the tool. It currently does not support in-line text editing. Any text you place in here will be lost. If you need to comment on your tab, please use the "Tab Notes" section located below.