Gminor Pentatonic, Two Forms on 4th String

(/) Slide Up  (\) Slide Down  (h) Hammer On  (p) Pull Off  (b) Bend (r) Release (v) Vibrato
E|-----------------3--
B|-----------3--6-----
G|-----3--5-----------
D|--5-----------------
A|--------------------
E|--------------------



E|--------------------
B|--------------6--8--
G|--------5--7--------
D|--5--8--------------
A|--------------------
E|--------------------
http://www.guitartabcreator.com
Guitar Tab Creator is intended to store guitar tab created through the tool. It currently does not support in-line text editing. Any text you place in here will be lost. If you need to comment on your tab, please use the "Tab Notes" section located below.