G minor Pentatonic Two Forms on 5th String

(/) Slide Up  (\) Slide Down  (h) Hammer On  (p) Pull Off  (b) Bend (r) Release (v) Vibrato


E|-----------------------
B|--------------------8--
G|-------------7--10-----
D|------8--10------------
A|--10-------------------
E|-----------------------



E|--------------------------
B|--------------------------
G|------------------10--12--
D|----------10--12----------
A|--10--13------------------
E|--------------------------
http://www.guitartabcreator.com
Guitar Tab Creator is intended to store guitar tab created through the tool. It currently does not support in-line text editing. Any text you place in here will be lost. If you need to comment on your tab, please use the "Tab Notes" section located below.