Blues Lick in A

(/) Slide Up  (\) Slide Down  (h) Hammer On  (p) Pull Off  (b) Bend (r) Release (v) Vibrato
t: E E E EE undefined
E|--------5------|--
B|-----5-----10--|--
G|--8------------|--
D|---------------|--
A|---------------|--
E|---------------|--


t: none none none none none none none none none nonenone
E|-------5----------5-----------
B|--8b9-----5--8b9-----5--8b10--
G|------------------------------
D|------------------------------
A|------------------------------
E|------------------------------



E|--------5--5--5--5--
B|--------2--3--4--5--
G|--------------------
D|--------------------
A|--------------------
E|--------------------



E|--10--10--10--10--
B|--7---8---9---10--
G|------------------
D|------------------
A|------------------
E|------------------



E|--12--12--12------
B|--9---10--11--12--
G|------------------
D|------------------
A|------------------
E|------------------
http://www.guitartabcreator.com
Guitar Tab Creator is intended to store guitar tab created through the tool. It currently does not support in-line text editing. Any text you place in here will be lost. If you need to comment on your tab, please use the "Tab Notes" section located below.