Mota Monsters

(/) Slide Up  (\) Slide Down  (h) Hammer On  (p) Pull Off  (b) Bend (r) Release (v) Vibrato

E|---------------------
B|---------------------
G|---------------------
D|---------------------
A|------6h-7p6---------
E|-6/7----------7-6h-7-



E|------------------------------------------------------
B|------------------------------------------------------
G|------------------------------------------------------
D|------------------------------------------------------
A|---------9------9------9------------7--------------6--
E|-7--7--7---7--7---7--7---7--5--5--5---5--4--4--4-7----



E|------------------------------------------------------
B|------------------------------------------------------
G|------------------------------------------------------
D|------------------------------------------------------
A|---------9------9------9------------7-----6-------6---
E|-7--7--7---7--7---7--7---7--5--5--5---5-4---7-4-7---7-



E|---------------------------------
B|---------------------------------
G|---------------------------------
D|---------------------------------
A|---------------------------------
E|-7-7-7-7-7-7-7-7-7-7-7-7-7-7-7-7-



E|-----------------------------------
B|-----------------------------------
G|-----------------------------------
D|-----------------------------------
A|-----6-9-6---6-9-6---4-7-4-----6---
E|-6/7-------7-------5-------4-7---7-



E|---------------------------------
B|---------------------------------
G|---------------------------------
D|---------------------------------
A|---6-9-6---6-9-6---4-7-4-----6---
E|-7-------7-------5-------4-7---7-



E|-----------------------------------
B|-----------------------------------
G|-----------------------------------
D|-----------------------------------
A|-----------------------------------
E|-7-7-7-7-7-7-7-7-7-7-7-7-7-7-7-7---



E|--------------------------------------------------------------------------
B|--------------------------------------------------------------------------
G|--------------------------------------------------------------------------
D|--------------------------------------------------------------------------
A|--------------------------------------------------------------------------
E|-7--7-7-7-7--7--7-7-7-7--7--7-7-7-7--7--7-7-7-7--5--5-5-5-5--5--5-5-5-5---



E|------------------------
B|------------------------
G|------------------------
D|------------------------
A|------------------------
E|-4--4-4-4-4--4--4-4-4-4-



E|---
B|---
G|---
D|---
A|---
E|-7-



E|---------------------------------------
B|---------------------------------------
G|---------------------------------------
D|---------------------------------------
A|---6-9-6p0---6-9-6p0---4-7-4p0-----6---
E|-7---------7---------5---------4-7---7-



E|-----------------------------------------------------
B|-----------------------------------------------------
G|-----------------------------------------------------
D|-----------------------------------------------------
A|---------9------9------9------------7--------------6-
E|-7--7--7---7--7---7--7---7--5--5--5---5--4--4--4-7---



E|----------------------------------------------------------------------------------------------
B|----------------------------------------------------------------------------------------------
G|----------------------------------------------------------------------------------------------
D|----------------------------------------------------------------------------------------------
A|---------------9----------9----------9--------------------7-----------6-----------6-----------
E|--7----7----7-----7----7-----7----7-----7----5----5----5-----5--4--7-----7--4--7-----7----4/7\
http://www.guitartabcreator.com
Guitar Tab Creator is intended to store guitar tab created through the tool. It currently does not support in-line text editing. Any text you place in here will be lost. If you need to comment on your tab, please use the "Tab Notes" section located below.