Chicken Fucker

(/) Slide Up  (\) Slide Down  (h) Hammer On  (p) Pull Off  (b) Bend (r) Release (v) Vibrato



E|------------------------------------
B|------------------------------------
G|------------------------------------
D|------------------------------------
A|-3-3-3/6-6-6--6------3-3--3--3--3-3-
E|----------------4-------------------



E|--------------------------------------------------------
B|--------------------------------------------------------
G|--------------------------------------------------------
D|--------------------------------------------------------
A|-3--3--3-3-3-3-3/6--6--6-6-6----------------------------
E|-----------------------------4--4-4--4--4--4-4-4-4-2--2-



E|---
B|---
G|---
D|---
A|-3-
E|---



E|-----------------------------------------------------------
B|-----------------------------------------------------------
G|-----------------------------------------------------------
D|-----------------------------------------------------------
A|-3-3-3-3---------6-6-6-6-5/6-5--3-3-3-3---------2----------
E|---------4-4-4-4------------------------4-4-4-4----3--2--0-



E|------------------------
B|------------------------
G|------------------------
D|------------------------
A|-3-----------2----------
E|----4--3--0-----3--2--0-



E|------------------------------------------------
B|------------------------------------------------
G|------------------------------------------------
D|-------5-----------8-----------5----------------
A|-3--6-----6--6--9-----9--3--6-----6--6--9--2--5-
E|------------------------------------------------



E|------------------------------------------------
B|------------------------------------------------
G|------------------------------------------------
D|-------5-----------------------5----------------
A|-3--6-----6--------------3--6-----6--------4----
E|-------------4--7--4--7--------------4--7-----4-



E|-----------------------
B|-----------------------
G|-----------------------
D|-------5---------------
A|-3--6-----6--5--2--2/3-
E|-----------------------



E|-------------------------------------------------------------------------------
B|-------------------------------------------------------------------------------
G|-------------------------------------------------------------------------------
D|-------------------------------------------------------------------------------
A|--3---------------------------------------3------------------------------------
E|-------4----3----0----1----2----1----0---------4----3----0----1----3----2----1\
http://www.guitartabcreator.com
Guitar Tab Creator is intended to store guitar tab created through the tool. It currently does not support in-line text editing. Any text you place in here will be lost. If you need to comment on your tab, please use the "Tab Notes" section located below.