Kiss the rain

(/) Slide Up  (\) Slide Down  (h) Hammer On  (p) Pull Off  (b) Bend (r) Release (v) Vibrato


E|--------3--3--5------5--------------------8--8-------8--10--12--12--13--13--------15--17--15-----
B|-----6---------------6----------8--10--8-----10-------------------------10----10-----------------
G|--5------------------5------10---------------10--------------------------------------------------
D|-----------3----------------------------------------------------0--------------------------------
A|-------------------------------------------------------------------------------------------------
E|---------------------------------------0---------------------------------------------------------



E|--13--12------
B|----------13--
G|--------------
D|--------------
A|--------------
E|------0-------
http://www.guitartabcreator.com
Guitar Tab Creator is intended to store guitar tab created through the tool. It currently does not support in-line text editing. Any text you place in here will be lost. If you need to comment on your tab, please use the "Tab Notes" section located below.