Ichiban no Takaramono

(/) Slide Up  (\) Slide Down  (h) Hammer On  (p) Pull Off  (b) Bend (r) Release (v) Vibrato


E|--------------------------------------------------------------------------------------------
B|-------------------------------------------------5--6--5------------------------------------
G|--2--3--5--3--5--2----------------2--3--5--3--5-------------------2--3--5--3--5-------------
D|--------------------5--3---------------------------------------------------------5/7--5--3--
A|--------------------------------------------------------------------------------------------
E|--------------------------------------------------------------------------------------------



E|------------------------------------------------------------------------------------
B|---------------------------------------5--5/6-----6--8--8/10--11--10--6-----6--5/6--
G|---------------------2--3--2--5--7--5----------5-------------------------5----------
D|--3--5--5/7-------------------------------------------------------------------------
A|------------------------------------------------------------------------------------
E|------------------------------------------------------------------------------------



E|--5--6--8--3-----------------------5--6--6/8--3-------------5--6-------------
B|--------------5----------6--5/6------------------5-----4/6--------10--11--13h
G|-----------------5/7--5-----------------------------8------------------------
D|-----------------------------------------------------------------------------
A|-----------------------------------------------------------------------------
E|-----------------------------------------------------------------------------



E|--5--4/5--------5--7--7/9--5--4--4/5--------5--7--7/9--5--4--4/5--------5--7--7/9-----
B|----------5---------------------------5---------------------------5-------------------
G|-------------7---------------------------7---------------------------7----------------
D|--------------------------------------------------------------------------------------
A|--------------------------------------------------------------------------------------
E|--------------------------------------------------------------------------------------



E|--5--5/7--5-------------------5--4--4/5--------5--7--7/9--5--4--4/5--------5--7--9--5-----
B|-----------------------------------------5---------------------------5--------------------
G|-------------7--6---------------------------7---------------------------7-----------------
D|-------------------7/9--9--7--------------------------------------------------------------
A|------------------------------------------------------------------------------------------
E|------------------------------------------------------------------------------------------



E|--5--4--4/5--------5--7--7/9--5--5/7--5-------------------
B|-------------5--------------------------------------------
G|----------------7------------------------7--6--2/4--4--2--
D|----------------------------------------------------------
A|----------------------------------------------------------
E|----------------------------------------------------------
http://www.guitartabcreator.com
Guitar Tab Creator is intended to store guitar tab created through the tool. It currently does not support in-line text editing. Any text you place in here will be lost. If you need to comment on your tab, please use the "Tab Notes" section located below.