Hitori ni shinaide

(/) Slide Up  (\) Slide Down  (h) Hammer On  (p) Pull Off  (b) Bend (r) Release (v) Vibrato
Turning : Drop G : D ; G ; A ; G ; E
(+)
E|--7--5--5-----------5--3--3--------------3--2--2--------2-----------------------3/5--7--5--5--|---
B|--5--------5--------3--------3--3--------1--------0--0-----3-----0-----3-------------5--------|---
G|--------------------------------------------------------------------2-------------------------|---
D|--------------------------------------------------------------4-------------------------------|---
A|--5-----------------4--------------------2-----------------4-------------------------5--------|---
E|----------------------------------------------------------------------------------------------|---


(-)
E|--------------5--3--3--------------3--2--2--0-----0--2--0-----------|-----------------|--------
B|--5--5--------3--------3--3--------1-----------3--------0-----------|--0--------------|--------
G|--------------------------------------------------------------------|-----2--2--------|--2-----
D|--------------------------------------------------------------4--2--|--2--------2--2--|--0-----
A|--------------4--------------------2-----------------------4--------|--5--------------|--4-----
E|--------------------------------------------------------2-----------|-----------------|--------



E|--------------|----------------------|--------------------|-----------------------|---------------
B|--------------|----------------------|-----------0-----3--|--------0--------------|---------------
G|--0--0--------|--0-------------------|--------------2-----|--0--2-----2--2--------|--2--0--0------
D|--------0--0--|-----4--4--2--2----4--|--0-----4-----------|--------2--------2--2--|--0--------0--0
A|--------------|--5-------------------|-----4--------------|--------5--------------|--4------------
E|--------------|--7-------------------|--------------------|-----------------------|---------------



E|--------------------|-----------------|--
B|--------------------|-----------------|--
G|--0-----------------|--------------0--|--
D|-----4--4--2--0--2--|--2-----4--2-----|--
A|--5-----------------|-----4-----------|--
E|--7-----------------|--2--------------|--


E|--2--------3--5--------------------------|--7-----------5-----2-----5-----------3--|--
B|--3--------------3--3--1--1-----------0--|--------------------------3--------------|--
G|--------2-----------------2-----2--------|--------------------2-----------------0--|--
D|--0--4-----4--0--------------0-----0-----|--------4--------4-----4--2-----4--2-----|--
A|--------------------------0-----------0--|--4--8-----4--8--------------4-----------|--
E|-----------------------------------------|-----------------------------------------|--



E|--2--------3--5--------10--8--8-----------|--7----------5--3--5--------3-----------2--
B|--3--------------3--3---------------------|-------------------------1--4-----------0--
G|--------2---------------------8-----2--0--|------0------0-----2--0--2-----------2-----
D|--0--4-----4--0------------------0--------|-------------------------------1--4--------
A|------------------------------8-----------|--10-----10-----------------4--------------
E|------------------------------------------|-------------------------------------------
Then repeat (-) then ( + )
http://www.guitartabcreator.com
Guitar Tab Creator is intended to store guitar tab created through the tool. It currently does not support in-line text editing. Any text you place in here will be lost. If you need to comment on your tab, please use the "Tab Notes" section located below.