Another day another Lie

(/) Slide Up  (\) Slide Down  (h) Hammer On  (p) Pull Off  (b) Bend (r) Release (v) Vibrato


E|-----------------------------------------------------------------------------------------------
B|-----------------------------------------------------------------------------------------------
G|-----5-----5-----5-----5-----5-----5-----3-----3-----3-----3-----3-----3-----5-----5-----5-----
D|--------5-----------------5-----5-----------3-----------------3-----3-----------5--------------
A|--3-----------3-----3-----------------1-----------1-----1-----------------3-----------3--------
E|-----------------------------------------------------------------------------------------------



E|------------------------------------------------------------------------------------------------
B|------------------------------------------------------------------------------------------------
G|-----5-----5-----5-----3-----3-----3-----3-----3-----3-----5-----5-----5--3p2p0--3-----3--------
D|--------5-----5-----------3-----------------3-----3-----------5---------------------------3-----
A|--3-----------------1-----------1-----1-----------------3-----------3---------------1-----------
E|------------------------------------------------------------------------------------------------



E|-------------------------------------------------------------------------------------------------
B|-------------------------------------------------------------------------------------------------
G|--3-----3--------------------------------5--5-----5--3p2p0--2h3--3--3--2h3-----------------------
D|-----------x--x--x--5-----5-----------5--------5-----------------3----------3--5-----5-----------
A|-----1-----x--x--x--5--5-----5--3--3-----------------------------1----------3--5--5-----5--3-----
E|-----------x--x--x--5-------------------------------------------------------3--5-----------------



E|-------------------------------------------------------------------------------------------------
B|-------------------------------------------------------------------------------------------------
G|-----5-----5-----5--3p2p0--3p2p0--3--3--3--2h3--------------------5-----5-----5--3p2p0--3--3--3--
D|--------5-----5----------------------3----------3--5--5--5-----------5-----5---------------3-----
A|--3----------------------------------1----------3--5--5--5--3--3---------------------------1-----
E|------------------------------------------------3--5--5--5---------------------------------------



E|-------------------------------------------------------------------------------------
B|-------------------------------------------------------------------------------------
G|--3--2h3-------------5--x--x--5--5--5--------------------------3--3--2h3-------------
D|----------3/5--5--5--5--x--x--5--5--5--3--3--3--3--5--5--5--5--3----------3/5--5--5--
A|---------------------3--x--x--3--3--3--3--3--3--3--5--5--5--5--1---------------------
E|---------------------------------------3--3--3--3--5--5--5--5------------------------
http://www.guitartabcreator.com
Guitar Tab Creator is intended to store guitar tab created through the tool. It currently does not support in-line text editing. Any text you place in here will be lost. If you need to comment on your tab, please use the "Tab Notes" section located below.