Another day another lie

(/) Slide Up  (\) Slide Down  (h) Hammer On  (p) Pull Off  (b) Bend (r) Release (v) Vibrato

E|----------------------------------------------------------------------------------------------
B|----------------------------------------------------------------------------------------------
G|-----5-----5v-----5-----5v-----3-----3-----3-----3-----3-----3-----5-----5-----5-----5-----5--
D|--------5------------5------------3-----------------3-----3-----------5-----------5-----5-----
A|--3------------3------------1-----------1-----1-----------------3-----------3-----------------
E|----------------------------------------------------------------------------------------------



E|-----------------------------------------------------------------------------------------------
B|-----------------------------------------------------------------------------------------------
G|-----3-----3-----3-----3-----3-----5-----5-----5-----5-----5-----5-----3-----3-----3-----------
D|--------3-----------3-----3-----------5-----------------5-----5-----------3-----------3--3--x--
A|--1-----------1-----------------3-----------3-----3-----------------1-----------1-----3--3--x--
E|--------------------------------------------------------------------------------------3--3--x--



E|-------------------------------------------------------------------------------------------------
B|-------------------------------------------------------------------------------------------------
G|-----------------5-----5-----5-----------3--3p2p0--3--2h3-------------------5-----5-----5--------
D|--5--5--5--5--------5-----5-----------3--------------------3b5--5--5--0--------5-----5-----------
A|--5--5--5--5--3-----------------1--1-------------------------------------3-----------------1--1--
E|--5--5--5--5-------------------------------------------------------------------------------------



E|----------------------------------------------------------------------------------------------
B|----------------------------------------------------------------------------------------------
G|-----3--3p2p0--3p2p0--3-------------------5-----5-----5--3p2p0--3-----3-----3-----3-----------
D|--3----------------------3b5--5--5--0--------5---------------------------3-----------3--3--x--
A|---------------------------------------3-----------3---------------1-----------1-----3--3--x--
E|-------------------------------------------------------------------------------------3--3--x--



E|-------------------------------------------------------------------------------------------------
B|-------------------------------------------------------------------------------------------------
G|-----------------5-----5-----5-----------3--3p2p0--3--2h3-------------------5-----5-----5--------
D|--5-----5-----------5-----5-----------3--------------------3b5--5--5--0--------5-----5-----------
A|--5--5-----5--3-----------------1--1-------------------------------------3-----------------1--1--
E|--5----------------------------------------------------------------------------------------------



E|---------------------------------------------------------------------|-----------------------
B|---------------------------------------------------------------------|-----------------------
G|-----3--3p2p0--3p2p0--3------------------------------------------5v--|--5--5--x--5--x--x--x--
D|--3----------------------3b5--5--5--0--3b5--5--0--3--5-----5-----5---|--5--5--x--5--x--x--x--
A|--------------------------------------------------3--5--5-----5--3---|--3--3--x--3--x--x--x--
E|--------------------------------------------------3--5---------------|-----------------------



E|-----------------------------------------------------------------------------------------------
B|-----------------------------------------------------------------------------------------------
G|--5--5--x--5--x--x--x--3--3--x--3--3--3-----------8--8--7--7--5--5--x--5--x--x--x--5--5--x--5--
D|--5--5--x--5--x--x--x--3--3--x--3--3--3--1--1--1--8--8--7--7--5--5--x--5--x--x--x--5--5--x--5--
A|--3--3--x--3--x--x--x--1--1--x--1--1--1--1--1--1--6--6--5--5--3--3--x--3--x--x--x--3--3--x--3--
E|-----------------------------------------1--1--1-----------------------------------------------



E|--
B|--
G|--
D|--
A|--
E|--
http://www.guitartabcreator.com
Guitar Tab Creator is intended to store guitar tab created through the tool. It currently does not support in-line text editing. Any text you place in here will be lost. If you need to comment on your tab, please use the "Tab Notes" section located below.