gilles 002

(/) Slide Up  (\) Slide Down  (h) Hammer On  (p) Pull Off  (b) Bend (r) Release (v) Vibrato

E|------------------------------------------------12--9--8--9--12--12--8--8/10b9--9--12--12--
B|-------------------------------------------------------------------------------------------
G|-------------------------------------------------------------------------------------------
D|-------------------------------------------------------------------------------------------
A|--------------------0--1--2--1-------------------------------------------------------------
E|--0--0--3--0--0--3--------------2--2\1/3--4--0--0------------0---0-----------------0---0---



E|--10--12--12--10--12--12--10--9--12--12--0--12--12--0--12--12--12--0--12--12--0--12--12--
B|-----------------------------------------------------------------------------------------
G|-----------------------------------------------------------------------------------------
D|-----------------------------------------------------------------------------------------
A|-----------------------------------------------------------------------------------------
E|--0---0---0---0---0---0---0---0--0---0---0--0---0---0--0---0---0---0--0---0---0--0---0---



E|--10--9--12--12--10--9--------------------
B|------------------------------------------
G|------------------------------------------
D|------------------------------------------
A|------------------------------------------
E|--0---0--0---0---0---0--10--11--10--9b10--
http://www.guitartabcreator.com
Guitar Tab Creator is intended to store guitar tab created through the tool. It currently does not support in-line text editing. Any text you place in here will be lost. If you need to comment on your tab, please use the "Tab Notes" section located below.