Little Mermaid

(/) Slide Up  (\) Slide Down  (h) Hammer On  (p) Pull Off  (b) Bend (r) Release (v) Vibrato
E|-----0--1--1--0--1--3--3-----0--1--1-----0-----1--0--1--3--3-----------0--1--3--3--1--3--1-----
B|--2--------2--1--------1--2--------2-----2-----2--1--------3-----3-----1--------1--------3-----
G|--2--------2--0--------0--2--------2-----2-----2--0--------0-----0-----2--------0--------2-----
D|--------------------------------------------------------------------------------2--------0-----
A|--1--------1--3--------3--1--------1--1-----1-----3--------3--1-----1--0-----------------------
E|-----------------------------------------------------------------------------------------------



E|--1--3--5--5--3--3-----------------------5--5--5--5--------------------------5--5-----5--5-----5--
B|--3--5-----0--------------3-----3--6--8--6--6--6--6--8--6--5-----------6--8--6--6-----6--6--8-----
G|-----------0-----------5-----5--4--------7--------7--------5--5--------------7-----7--------------
D|--------------------5-----------5--------------------------3-----3--------------------------------
A|--------------------------------5--------------------------5--------5-----------------------------
E|-----------3--------------------3--------6--------6--------------------------6-----------6--------



E|-----------------1--3--5--5--5--5--3-----3-----3--1--------------------1--3--5--5-----------5-----
B|--3--------------2-----6--6--6--5-----------5--1--1--1--------------1-----1--3--3--3--------3--3--
G|--0--0-----------2-----7--------5-----5--------0--2-----2--------2--------------2-----2-----2--2--
D|--0-----0-----------------------3-----------------3--------3--0-----------------------------------
A|-----------------1--------------------------------------------------------------2--------2--2-----
E|--3--------3--3--------6--------------------------------------------------------------------------



E|-----5-----------5--------------3--------3-----------------3-----------------3-----------8--
B|--6--6--6--------6--------6-----1-----1-----1-----------1-----1-----------1-----1-----------
G|--2--7-----7-----7--7-----7-----3--3-----------3-----3-----------3-----3-----------3--------
D|--------------------------------------------------0-----------------1-----------------------
A|--------------------------------3-----------------------------------------------------7-----
E|-----6--------6--6--6--6-----6--------------------------------------------------------------



E|--1--1-----1--1--3--5-----------------------------------------------------1--------------------
B|--1--1-----1--1--3--5--1--1-----1--1--------------1--------1-----1--1--3-----1--------3-----6--
G|--2-----2--------------2--2-----2--2--2--------------3--------3--3--3--------0-----0-----0--3--
D|--3--------------------2-----2-----------2-----2--------3-----------3--------2--2-----------5--
A|--3--------------------0-----------0--------0-----1--------0-----------------3--------------3--
E|--1-----------1-----3-----------------------------------------------3--------------------------



E|-----------1--1-----1--1--3--5-----------------------1--3-----------------3-----------------3--
B|--------8--3--3-----3--3--5--5--1--------------1--3--3--2--------2-----------2-----------2--1--
G|-----3--5--2-----2--------------2--2--------------0-----0-----0-----0-----------0-----0-----3--
D|--5-----5--0-----------0--------2-----2-----2--------------3-----------3-----------3-----------
A|--------------------------------0--------0-----3--------1-----------------1-----------------3--
E|-----------------------------3-----------------------------------------------------------------



E|--------1--3--8-----1--1-----1--1--3--5-------------------------------------------------------
B|-----1-----------8--1--1-----1--1--3--5--1--1-----1--1----------------1--------1-----1--1-----
G|--3-----------------2-----2--------------2--2-----2-----2----------------3--------3--3--3-----
D|--------------------3--------------------2-----2-----------2-----2----------3-----------3-----
A|-----------3-----7--3--------------------0-----------0--------0-------1--------0--------------
E|--------------8-----1-----------1-----3-------------------------------------------------3-----



E|-----1------------------------------------------------------------------------1--3-----
B|--3-----1--------3-----6--------8--6--6-----6--6--8--10--1--------------1--3--3--2-----
G|--------0-----0-----0--3-----3--5--7--7-----7--7--7--9---2--2--------------0-----0-----
D|--------2--2-----------5--5-----5--7-----7---------------2-----2-----2-----------------
A|--------3--------------3-----------5-----------5---------0--------0-----3--------1-----
E|---------------------------------------------------------------------------------------



E|-----------------3-----------------3-----------------------3-----5-----------------3-----5-----
B|--------2-----------2-----------2--1-----1-----5-----6-----5-----6--6--------6-----6-----6-----
G|-----0-----0-----------0-----0-----3--3-----3--3-----3-----------5-----5-----5-----------------
D|--3-----------3-----------3--------------------5--5-----5-----5--3--------3--3--3-----3-----3--
A|-----------------1-----------------3-----------3-----------------------------------------------
E|-----------------------------------------------------------------------------------------------



E|--5-----------------------5-----8--6--------6--5--6--8--6-----6--------6-----5-----------
B|--6--6--------6-----8-----6-----6-----6-----6--6-----------6-----6-----6-----6-----6-----
G|--5-----5-----5-----5-----------5-----------0--------------6-----------6-----------------
D|--------------------------------0--------0--0--------------------------------------------
A|--6--------6--6--6-----6-----6-----------------------------4--------4--4--4-----4-----4--
E|-----------------------------------------------------------------------------------------



E|-----------------------6-----5-----------------------------1--
B|--1--------1-----------------------6--1-----------1--6--5--1--
G|--2-----2-----2-----------------------3--3--------0--7-----2--
D|--3--2-----------2--5-----5-----------3-----3-----2--7--5--3--
A|--0-----------------------------3-----------------3--------3--
E|--------------------------------------3--------3-----------1--
http://www.guitartabcreator.com
Guitar Tab Creator is intended to store guitar tab created through the tool. It currently does not support in-line text editing. Any text you place in here will be lost. If you need to comment on your tab, please use the "Tab Notes" section located below.