Star Spangled Banner

(/) Slide Up  (\) Slide Down  (h) Hammer On  (p) Pull Off  (b) Bend (r) Release (v) Vibrato


E|------------------------------------------------------------------------------------------
B|--3--------------8v--10b11--10--8------------------10b12--10--8--7v--5--7--8--8-----------
G|-----4--0--4--7--------------------4--6--7v--7--7--------------------------------7--4--0--
D|------------------------------------------------------------------------------------------
A|------------------------------------------------------------------------------------------
E|------------------------------------------------------------------------------------------



E|----------------------------------------------------------------------------------------
B|--12--12--12--13--15--15v--13--12--10--12--13--13--13--12--10--8--7--5--7--8--8v--------
G|----------------------------------------------------------------------------------7-----
D|----------------------------------------------------------------------------------------
A|----------------------------------------------------------------------------------------
E|----------------------------------------------------------------------------------------



E|-------------------------------5--8--7--5--3--3h5--------------------------15v-------------
B|--------3/8--8--8--7--5--5--5----------------------3--3/8--10--12--13--15-------8--10--12--
G|--4--0-------------------------------------------------------------------------------------
D|-------------------------------------------------------------------------------------------
A|-------------------------------------------------------------------------------------------
E|-------------------------------------------------------------------------------------------



E|---------------
B|--13--10v--8v--
G|---------------
D|---------------
A|---------------
E|---------------
http://www.guitartabcreator.com
Guitar Tab Creator is intended to store guitar tab created through the tool. It currently does not support in-line text editing. Any text you place in here will be lost. If you need to comment on your tab, please use the "Tab Notes" section located below.