Solo 1

(/) Slide Up  (\) Slide Down  (h) Hammer On  (p) Pull Off  (b) Bend (r) Release (v) Vibrato


E|-----------------------------------8b8-----------------------------------8b8--
B|--10p8-------10p8-------10p8------------10p8-------10p8-------10p8------------
G|--------9p7--------9p7--------9p7-------------9p7--------9p7--------9p7-------
D|------------------------------------------------------------------------------
A|------------------------------------------------------------------------------
E|------------------------------------------------------------------------------



E|--10p8------10p8------10p8------12--12p10------12p10------12p10------13b13--
B|--------10--------10--------10-------------12---------12---------12---------
G|----------------------------------------------------------------------------
D|----------------------------------------------------------------------------
A|----------------------------------------------------------------------------
E|----------------------------------------------------------------------------



E|--13p11-------------------------------------------------------------15--17b17--
B|---------13p11----------------------------------------------17--15-------------
G|----------------13b13--15p13------15b15--13b13--15--17--19---------------------
D|------------------------------15-----------------------------------------------
A|-------------------------------------------------------------------------------
E|-------------------------------------------------------------------------------



E|--17------------------------------------
B|------16--18--16------------------------
G|------------------17--15--17p15--13b13--
D|----------------------------------------
A|----------------------------------------
E|----------------------------------------
http://www.guitartabcreator.com
Guitar Tab Creator is intended to store guitar tab created through the tool. It currently does not support in-line text editing. Any text you place in here will be lost. If you need to comment on your tab, please use the "Tab Notes" section located below.