Improvised new song;D

(/) Slide Up  (\) Slide Down  (h) Hammer On  (p) Pull Off  (b) Bend (r) Release (v) Vibrato


E|-----------------------------------------------------------
B|-----------5-----------9-----------7-----------5-----------
G|-----------5-----------9-----------7--------------5--------
D|--3--3--3--5--7--7--7--9--5--5--5--7--3--3--3--------5----- x5
A|--3--3--3-----7--7--7-----5--5--5-----3--3--3-----------5--
E|--3--3--3-----7--7--7-----5--5--5-----3--3--3--------------


E|-----------------------------------------
B|-----------------------------------------
G|-----------------------------------------
D|--3------7------5--------10--8--7--6--5--
A|--3------7------5--------10--8--7--6--5--
E|--3------7------5--------10--8--7--6--5--



E|----------------
B|----------------
G|----------------
D|--6----10----8--
A|--6----10----8--
E|--6----10----8--
http://www.thatsrightididthis.com


Copyright Jack Libby 10/11/11
Guitar Tab Creator is intended to store guitar tab created through the tool. It currently does not support in-line text editing. Any text you place in here will be lost. If you need to comment on your tab, please use the "Tab Notes" section located below.