Friday Afternoon

(/) Slide Up  (\) Slide Down  (h) Hammer On  (p) Pull Off  (b) Bend (r) Release (v) Vibrato

E|-----------------------------------------------------------------
B|-----------------------------------------------------------------
G|--------1--------------1-------------1--------------1h2p1-----1--
D|-----2-----2--------2-------------2-----2--------2---------2-----
A|--2-----------2--3--------3--3/4-----------4--3------------------
E|-----------------------------------------------------------------



E|-----------------------------------------------------------------
B|--------0--------------0-------------0---------------------------
G|--------1--------------1-------------1--------------1h2p1-----1--
D|-----2-----2--------2-------------2-----2--------2---------2-----
A|--2-----------2--3--------3--3/4-----------4--3------------------
E|-----------------------------------------------------------------



E|--0----0--0--0--0----0--0--0--0----0----0----0--0------------0--
B|--0----0--0--0--0----0--0--0--0----1----1----1--1--1h3p1-----1--
G|--1----1--1--1--2----2--2--2--1----0----0----0--0---------0--0--
D|--2----2--2--2--2----2--2--2--2----2----2----2--2------------2--
A|--2----2--2--2--2----2--2--2--2----3----3----3--3------------3--
E|--0----0--0--0--0----0--0--0--0---------------------------------



E|--0----0--0--0----0----0--0--0----0----0----0--0------------0--
B|--2----2--2--3----3----3--3--2----1----1----1--1--1h3p1-----1--
G|--0----0--0--0----0----0--0--0----0----0----0--0---------0--0--
D|--2----2--2--2----2----2--2--2----2----2----2--2------------2--
A|--4----4--4--4----4----4--4--4----3----3----3--3------------3--
E|---------------------------------------------------------------



E|--5----5----5----5----5--5----4----4----1----1----1--1--0--
B|--5h6--6----5----5----5--5----4----4----1----1----1--1--0--
G|--5----5----5----5----5--5----5----5----2----2----2--2--1--
D|--5h7--7----5h7--7----7--7----6----6----3----3----3--3--2--
A|--5----5----5h7--7----7--7----6----6----3----3----3--3--2--
E|------------5----5----5--5----4----4----1----1----1--1--0--



E|--5----5----8----8----8--8--5----5----5----3----3----3--3--
B|--5h6--6----6----6----6--6--6----5----5----3----3----3--3--
G|--5----5----5----5----5--5--5----5----5----4----4----4--4--
D|--5h7--7----7----7----7--7--7----5h7--7----5----5----5--5--
A|--5----5----5----5----5--5--5----5h7--7----5----5----5--5--
E|---------------------------------5----5----3----3----3--3--



E|--1--1--1----1----1--1----1----0--0--0----2----2--2----2--
B|--1--1--1----1----1--1----1----0--0--0----2----2--2----2--
G|--2--2--2----2----2--2----2----1--1--1----3----3--3----3--
D|--3--3--3----3----3--3----3----2--2--2----4----4--4----4--
A|--3--3--3----3----3--3----3----2--2--2----4----4--4----4--
E|--1--1--1----1----1--1----1----0--0--0----2----2--2----2--



E|--5----5--5--3----3----3--3----5----3----0----0----0--0--
B|--5----5--5--3----3----3--3----5----5----0----0----0--0--
G|--6----6--6--4----4----4--4----6----5----1----1----1--1--
D|--7----7--7--5----5----5--5----7----5----2----2----2--2--
A|--7----7--7--5----5----5--5----7----5----2----2----2--2--
E|--5----5--5--3----3----3--3----5---------0----0----0--0--



E|--5----5--5--3----3----3--3----1----3--1--0-----
B|--5----5--5--3----3----3--3----1----------0-----
G|--6----6--6--4----4----4--4----2----------1-----
D|--7----7--7--5----5----5--5----3----------2-----
A|--7----7--7--5----5----5--5----3----------2-----
E|--5----5--5--3----3----3--3----1----------0-----



E|--1----3--1--0--------1----3--1h3p1----------0----3--
B|--1----------0--------1--------------1--3----0----3--
G|--2----------1--------2----------------------1----4--
D|--3----------2--------3----------------------2----5--
A|--3----------2--------3----------------------2----5--
E|--1----------0--------1----------------------0----3--



E|--5----5----8----8----8--8--5----5----5----3----3----3--3-----
B|--5h6--6----6----6----6--6--6----5----5----3----3----3--3-----
G|--5----5----5----5----5--5--5----5----5----4----4----4--4-----
D|--5h7--7----7----7----7--7--7----5h7--7----5----5----5--5-----
A|--5----5----5----5----5--5--5----5h7--7----5----5----5--5-----
E|---------------------------------5----5----3----3----3--3-----



E|--1--1--1----1----1--1----1----0--0--0----3----3--3--------5-----------------
B|--1--1--1----1----1--1----1----0--0--0----3----3--3--------5-----------------
G|--2--2--2----2----2--2----2----1--1--1----4----4--4--------5-----------------
D|--3--3--3----3----3--3----3----2--2--2----5----5--5--------7-----------------
A|--3--3--3----3----3--3----3----2--2--2----5----5--5--------7-----------------
E|--1--1--1----1----1--1----1----0--0--0----3----3--3--------5-----------------
http://www.guitartabcreator.com
Guitar Tab Creator is intended to store guitar tab created through the tool. It currently does not support in-line text editing. Any text you place in here will be lost. If you need to comment on your tab, please use the "Tab Notes" section located below.