riff1

(/) Slide Up  (\) Slide Down  (h) Hammer On  (p) Pull Off  (b) Bend (r) Release (v) Vibrato


E|-----------------------------------------------------------------------------------------------------
B|-----------------------------------------------------------------------------------------------------
G|-----------------------------------------------------------------0--2--7--------4--------------------
D|-----------0--2--0--------------------------------------0--2--3-----------7--6-----5--4--------------
A|--0--2--3-----------3--2-----0--2--0-----------0--2--3-----------------------------------5--5--5--7--
E|--------------------------3-----------3--2--0--------------------------------------------------------



E|--------------------------------------------------------------------------------------
B|--------------------------7--------------------------------------------------7--5--3--
G|--------------------------------------------------4-----------------------------------
D|--------------6--------6-----6-----------7-----------5--4--------6--------6-----------
A|--5--7-----7--------7--------------0--5-----0--5--------------7--------7--------------
E|--------0--------0--------------0--------------------------0--------0-----------------



E|--------------
B|--------------
G|--0--2--------
D|--------3--0--
A|--------------
E|--------------
http://www.guitartabcreator.com
Guitar Tab Creator is intended to store guitar tab created through the tool. It currently does not support in-line text editing. Any text you place in here will be lost. If you need to comment on your tab, please use the "Tab Notes" section located below.