נגמר- עידן עמדי

(/) Slide Up  (\) Slide Down  (h) Hammer On  (p) Pull Off  (b) Bend (r) Release (v) Vibrato


E|--------------------------------------------------0--------------------------
B|--0-----------------3--0--------3-----------3--------3--1--0-----------------
G|--------0--2-----------------------4-----------4--------------2--0-----0-----
D|-----0-----------0-----------4-----------4--------------------4-----4--------
A|--------------------------2-----------2-----------3-----------5--------------
E|--3-----------3--------------------------------------------------------------



E|--------------3--------------------
B|--------0-----------------0--------
G|-----0-----0--------0-----------0--
D|-----------------0-----0-----0-----
A|-----------------------------------
E|--3--------------------------------
http://www.guitartabcreator.com
Guitar Tab Creator is intended to store guitar tab created through the tool. It currently does not support in-line text editing. Any text you place in here will be lost. If you need to comment on your tab, please use the "Tab Notes" section located below.