ritz in the works

(/) Slide Up  (\) Slide Down  (h) Hammer On  (p) Pull Off  (b) Bend (r) Release (v) Vibrato


E|-----0--1--3--5--3--1--0--------------0--1--3--1--0------------------------------
B|--3-----------------------3--3--1--3-----------------3--1--1----1--0--1--0-------
G|---------------------------------------------------------------------------------
D|---------------------------------------------------------------------------------
A|---------------------------------------------------------------------------------
E|---------------------------------------------------------------------------------



E|--------0-----------0-----------0-----------0-----------------------
B|-----1-----------1-----------1-----------1-----------------------0--
G|--2-----------2-----------2-----------2-----------------------2-----
D|-----------2-----------2-----------2-----------2--------1--3--------
A|--------------------------------------------------------------------
E|--------------------------------------------------------------------



E|--0-----------
B|-----2--0-----
G|-----------1--
D|--------------
A|--------------
E|--------------
Guitar Tab Creator is intended to store guitar tab created through the tool. It currently does not support in-line text editing. Any text you place in here will be lost. If you need to comment on your tab, please use the "Tab Notes" section located below.