Tmtfts solo

(/) Slide Up  (\) Slide Down  (h) Hammer On  (p) Pull Off  (b) Bend (r) Release (v) Vibrato


E|--15p12p10--16p13p11--17p14p12--18p15p13--19\
B|---------------------------------------------
G|---------------------------------------------
D|---------------------------------------------
A|---------------------------------------------
E|---------------------------------------------



E|----------15--16--15h16p15----------
B|--15--18--------------------18--16--
G|------------------------------------
D|------------------------------------
A|------------------------------------
E|------------------------------------



E|----------------------
B|--15--16--15--13--15--
G|----------------------
D|----------------------
A|----------------------
E|----------------------



E|------------
B|------------
G|--17p14p13--
D|------------
A|------------
E|------------



E|------------
B|------------
G|--16p13p12--
D|------------
A|------------
E|------------



E|-------------------------------------------------------
B|-------------------------------------------------------
G|--13--14--17--14--13h14p13-----------------------------
D|----------------------------17--14--13--14--17--14--13\
A|-------------------------------------------------------
E|-------------------------------------------------------
http://www.guitartabcreator.com
Guitar Tab Creator is intended to store guitar tab created through the tool. It currently does not support in-line text editing. Any text you place in here will be lost. If you need to comment on your tab, please use the "Tab Notes" section located below.