Pharohs Demise

(/) Slide Up  (\) Slide Down  (h) Hammer On  (p) Pull Off  (b) Bend (r) Release (v) Vibrato


E|--------------------------------------------------------------------------------------------------
B|--------------------------------------------------------------------------------------------------
G|--------------------------------------------------------------------------------------------------
D|--------------------------------------------------------------------------------------0--1--0--1--
A|--7-----------------------8--5--4--------------4--3-----------------2-----------------------------
E|--0--0--0--0--0--0--0--0-----------0--0--0--1--------0--0--3--0--0-----0--0--2--0--0--------------



E|--------------------------------------------------------------------------------------------------
B|--------------------------------------------------------------------------------------------------
G|--------------------------------------------------------------------------------------------------
D|--------------------------------------------------------------------------------------------------
A|--7-----------------------8--5--4--------------3--2-----------------------------------0--1--0--1--
E|--0--0--0--0--0--0--0--0-----------0--0--0--1--------0--0--3--0--0--2--0--0--1--0--0--------------



E|--------------------------------------------------------------------------------------------------
B|--------------------------------------------------------------------------------------------------
G|--------------------------------------------------------------------------------------------------
D|--------------------------------------------------------------------------------------0--1--0--1--
A|--7-----------------------8--5--4--------------4--3-----------------2-----------------------------
E|--0--0--0--0--0--0--0--0-----------0--0--0--0--------0--0--3--0--0-----0--0--2--0--0--------------



E|--------------------------------------------------------------------------------------------------
B|--------------------------------------------------------------------------------------------------
G|--------------------------------------------------------------------------------------------------
D|--------------------------------------------------------------------------------------------------
A|--7-----------------------8--5--4-----------------------------------0--------1--------------------
E|--0--0--0--0--0--0--0--0-----------0--0--0--1--4--3--0--0--2--0--0-----0--0-----0--0--0--1--0--1--



E|--------------------------------------------------------------------------------------------
B|--------------------------------------------------------------------------------------------
G|--------------------------------------------------------------------------------------------
D|--------------------------------------------------------------------------4-----------------
A|--2-----------2-----------8--5--4-----2--------4--3-----------5-----------2-----------4--3--
E|--0--0--0--0--0--0--0--0-----------0--0--0--1--------0--0--0--3--0--0--0-----0--0--0--2--1--



E|--------------------------------------------------------------------------------------------
B|--------------------------------------------------------------------------------------------
G|--------------------------------------------------------------------------------------------
D|--------------------------------------------------------------------------------3-----------
A|--2-----------2-----------8--5--4-----2--------3--2-----------5-----------4-----1-----3--3--
E|--0--0--0--0--0--0--0--0-----------0--0--0--1--------0--0--0--3--0--0--0--2--0-----0--1--1--



E|-----------------------------------------------------------------------------------------------
B|-----------------------------------------------------------------------------------------------
G|-----------------------------------------------------------------------------------------------
D|--------------------------------------------------------------------------------3--------------
A|--2-----------2-----------8--5--4-----2-----------------------4-----------3-----1-----3--3--2--
E|--0--0--0--0--0--0--0--0-----------0--0--0--1--4--3--0--0--0--2--0--0--0--1--0-----0--1--1--0--



E|-----------------------------------------------------------------------------------------------
B|-----------------------------------------------------------------------------------------------
G|-----------------------------------------------------------------------------------------------
D|-----------------------------------------------------------------------------------------------
A|--7--------------7--8--7--------4--3-----2-----1--7--------------7--8--7--------------6--7--6--
E|--0--0--0--0--0-----------0--0--------3-----2-----0--0--0--0--0-----------0--0--6--7-----------



E|-----------------------------------------------------------------------------------------------------
B|-----------------------------------------------------------------------------------------------------
G|-----------------------------------------------------------------------------------------------------
D|-----------------------------------------------------------------------------------------------------
A|--7--------------7--8--7--------4--3-----2-----1--7--------------7--8--7------------------7--10--11--
E|--0--0--0--0--0-----------0--0--------3-----2-----0--0--0--0--0-----------0--0--7--8--11-------------



E|-------------------------------------------------------------------------------
B|-------------------------------------------------------------------------------
G|-------------------------------------------------------------------------------
D|-------------------------------------------------------------------------------
A|--2----------------4h5-------------1----3----------------2h3-------------------
E|--0----0--0--0--0-------0--2----0-------1----1--1--1--1-------0--3----0--1-----



E|--------------------------------------------------------------------------------------------------
B|--------------------------------------------------------------------------------------------------
G|--------------------------------------------------------------------------------------------------
D|-----------------------------6--7--------------3-----------------------------4--5-----------------
A|--2-----------2--------------4--5-----4--------1-----3-----------3-----------2--3-----5--------3--
E|--0--0--0--0--0--0--0--0--0--------0--2--0--0-----0--1--1--1--1--1--1--1--1--------0--3--0--0--1--



E|-----------------------------------------------------------------------------------------------
B|-----------------------------------------------------------------------------------------------
G|-----------------------------------------------------------------------------------------------
D|--------------------------1--2--1--------------------------------------------------------------
A|-----------------------------------3--2--3--2-----2-----------------------------------------1--
E|--0--0--0--0--0--0--0--0-----------------------3--0--0--0--0--0--0--0--0--2--1--0--3--0--0-----



E|-----------------------------------------------------------------------------------------------
B|-----------------------------------------------------------------------------------------------
G|-----------------------------------------------------------------------------------------------
D|--------------------------1--2--1--------------------------------------------------------------
A|--2--------------------------------3--2--3--2-----2-----------------------------------------3--
E|--0--0--0--0--0--0--0--0-----------------------3--0--0--0--0--0--0--0--0--2--1--0--3--0--0-----



E|-----------------------------------------------------------------------------------------------------------------------------------------------------
B|-----------------------------------------------------------------------------------------------------------------------------------------------------
G|-----------------------------------------------------------------------------------------------------------------------------------------------------
D|--------------------------1--2--1--------------------------------------------------------------------------------------------------------------------
A|--2--------------------------------3--2--3--2-----2-----------------------------------------1--3--2--------6--5--------8--7--------------------------
E|--0--0--0--0--0--0--0--0-----------------------3--0--0--0--0--0--0--0--0--2--1--0--3--0--0-----------0--0--------0--0--------0--0--0--0--0--0--0--0--



E|-------------------------------------------------------------
B|-------------------------------------------------------------
G|-------------------------------------------------------------
D|----------------------3-------------------------9-----7--10--
A|--2----------------3--1--4--3--2----------------7--8--5--8---
E|--0----0--0--0--0--1-----2--1--0----0--0--0--0-----6---------



E|-------------------------------------------------------
B|-------------------------------------------------------
G|-------------------------------------------------------
D|-------------------3----------------------9-----7--10--
A|--2----2--------3--1--4--3--2----2--------7--8--5--8---
E|--0----0--0--0--1-----2--1--0----0--0--0-----6---------



E|--
B|--
G|--
D|--
A|--
E|--
http://www.guitartabcreator.com
Guitar Tab Creator is intended to store guitar tab created through the tool. It currently does not support in-line text editing. Any text you place in here will be lost. If you need to comment on your tab, please use the "Tab Notes" section located below.