Destroyer of all worlds

(/) Slide Up  (\) Slide Down  (h) Hammer On  (p) Pull Off  (b) Bend (r) Release (v) Vibrato
E|---------------------------------------------------------------------------------------------------
B|-------------------------4h5p4--------------------------------------------4h5p4-----4h5p4-----4h5--
G|--------------------------------5--4--4h5p4--2-----------------------------------5---------5-------
D|--2---------------------------------------------3--2-----------------------------------------------
A|--2----------------2--3----------------------------2----------------2--3---------------------------
E|--0----0--0--3--5----------------------------------0----0--0--3--5---------------------------------



E|-------------------------------------------------------------------------------------------------------
B|-------------------------------------------------------------------------------------------------------
G|-------------------------------------------------------------------------------------------------------
D|--2----------------3/10----9----x--2----5----------------5/10--9----x--2----8--------------8/10--9-----
A|--2----------------3-10----9----x--2----5----------------5-10--9----x--2----8--------------8-10--9-----
E|--0----0--0--0--0--1-8-----7----x--0----3----3--3--3--3--3-8---7----x--0----6--6--6--6--6--6-8---7-----



E|--------------------------------------
B|--------------------------------------
G|--------------------------------------
D|--x--2----10----------------9----8\2--
A|--x--2----10----------------9----8-2--
E|--x--0----8-----8--8--8--8--7----6-0--



E|-------------------------------------------------
B|-------------------------------------------------
G|-------------------------------------------------
D|-------------------------1--------2--------3-----
A|--2-------3--------1--------2--------3--------4--
E|--0----1-----2--3-----2--------3--------4--------



E|------------------------------------------------------
B|------------------------------------------------------
G|------------------------------------------------------
D|--2----------------------------------------------2----
A|--2-------------------------------3--------1-----2----
E|--0----0--0--0--0--0--0--0--0--1-----2--3-----2--0----



E|-------------------------------------------
B|-------------------------------------------
G|-------------------------------------------
D|--2----------------1--------2--------3-----
A|--2-------------------2--------3--------4--
E|--0----0--0--0--0--------3--------4--------



E|----------------------------------------------------------
B|----------------------------------------------------------
G|----------------------------------------------------------
D|----------------------------------------------------------
A|--5h6p5-----4h5p4-----3h4p3-----2h3p2-----1h2p1--------2--
E|---------5---------4---------3---------2---------2--1--0--
http://www.guitartabcreator.com
Guitar Tab Creator is intended to store guitar tab created through the tool. It currently does not support in-line text editing. Any text you place in here will be lost. If you need to comment on your tab, please use the "Tab Notes" section located below.