Heroes of might and magic IV Sea theme

(/) Slide Up  (\) Slide Down  (h) Hammer On  (p) Pull Off  (b) Bend (r) Release (v) Vibrato

E|-----------------------------------10------------------10--------------------------
B|-------------------12--12--10--12------12--12--10--12------12--12--10--12--10------
G|--9--9--9--11--12--------------------------------------------------------------11--
D|-----------------------------------------------------------------------------------
A|-----------------------------------------------------------------------------------
E|-----------------------------------------------------------------------------------



E|-----------------------------------------------------------------------------
B|----------10--10------10--12--10--10------10--12--10--10------10-------------
G|--11--12----------12------------------12------------------12------12--9------
D|-------------------------------------------------------------------------12--
A|-----------------------------------------------------------------------------
E|-----------------------------------------------------------------------------



E|--12--11--12--11--12--14--15--14--12------11--------------
B|--------------------------------------15------11------11--
G|--------------------------------------------------13------
D|----------------------------------------------------------
A|----------------------------------------------------------
E|----------------------------------------------------------
http://www.guitartabcreator.com
Guitar Tab Creator is intended to store guitar tab created through the tool. It currently does not support in-line text editing. Any text you place in here will be lost. If you need to comment on your tab, please use the "Tab Notes" section located below.