Carry on Wayward Son 5 s down

(/) Slide Up  (\) Slide Down  (h) Hammer On  (p) Pull Off  (b) Bend (r) Release (v) Vibrato
E|-----------------------------------------------------
B|-----------------------------------------------------
G|-----------------------------7-----------------------
D|-----------5-----------7--9-----9--7--5--7-----5-----
A|--7--5--7-----7--5--7-----------------------5-----4--
E|-----------------------------------------------------



E|--------------------------------------------------------------
B|--------------------------------------------------------------
G|--------7--7--------------------------9--7--------------------
D|--4--4--7--7--2--2--4--5--7-----4--4--9--7--2--2--4--5--7-----
A|--2--2-----------------------5--2--2-----------------------5--
E|--------------------------------------------------------------



E|--7--7--7--5--5--5--3--
B|--7--7--7--5--5--5--3--
G|-----------------------
D|-----------------------
A|-----------------------
E|-----------------------



E|---------------------------------------------------------------------------
B|-----5--3----------------------------------5--3----------------------------
G|-----------4--2-------------------2--0-----------4--2-------------------2--
D|--2--------------5--2--5/7--0--2--------2--------------5--2--5/7--0--2-----
A|---------------------------------------------------------------------------
E|---------------------------------------------------------------------------



E|------------------------------------------------------
B|------------------------------------------------------
G|------------------------------------------------------
D|-----9--7--6--4--2-----2/4-----9--7--6--4--2-----2/4--
A|--2-----------------4-------2-----------------4-------
E|------------------------------------------------------



E|--------------------------------------------------------------12/14--14\12--9h12p---
B|--12/14--14\12--9---------------12p9--12--12/14v--12p9--12p9------------------------
G|-------------------11p9--11p9v------------------------------------------------------
D|------------------------------------------------------------------------------------
A|------------------------------------------------------------------------------------
E|------------------------------------------------------------------------------------



E|--9---------9-----------------------------------------------------------
B|-----12--9-----12-------------------------------------------------------
G|-------------------9-------------------------4-----4--4-----4-----------
D|----------------------11-----2--4/6\4v--2/6-----6--------6-----6--4--2--
A|--------------------------4---------------------------------------------
E|------------------------------------------------------------------------



E|--------17--17--------------------------------------------------
B|----------------------------------------------------------------
G|----------------------------2-----------9--7--------------2-----
D|--4--4----------2--2--4--5-----2--4--4--9--7--2--2--4--5-----0--
A|--2--2----------------------------2--2--------------------------
E|----------------------------------------------------------------



E|----------------------------------------------------------------------------
B|----------------------------------------------------------------------------
G|------------1h4--1h4--1h4--1h4--1hh4--1h4--1h4--1h4--1----------------------
D|--6\4--6/8----------------------------------------------4--2--4--2-----2/4--
A|--------------------------------------------------------------------4-------
E|----------------------------------------------------------------------------



E|--------------------------------12/14--9--------9-------------
B|--12-----12-------------------------------12p9-----12--12-----
G|--11b11------11--9--11v--11--9-----------------------------9--
D|--------------------------------------------------------------
A|--------------------------------------------------------------
E|--------------------------------------------------------------



E|--
B|--
G|--
D|--
A|--
E|--
http://www.guitartabcreator.com
Guitar Tab Creator is intended to store guitar tab created through the tool. It currently does not support in-line text editing. Any text you place in here will be lost. If you need to comment on your tab, please use the "Tab Notes" section located below.