forget

(/) Slide Up  (\) Slide Down  (h) Hammer On  (p) Pull Off  (b) Bend (r) Release (v) Vibrato


E|-----------------------------------------------------
B|--------6p5p6-------6p5h6-----5-----5----------------
G|-----7---------------------7-----------5--7-------9--
D|-----------------------------------------------------
A|--5--------------5------------3--3-------------------
E|------------------------------------------6----6--8--

guitar strumming while verses.

E|---------------------------------------------------------
B|---------------------------------------------------------
G|---------------------------------------------------------
D|---------------------------------------------------------
A|-5-5-5-5-5--3-3---------12-12-12-12-12--10-10---8-8--9-9-
E|---------------------------------------------------------
http://www.guitartabcreator.com
Guitar Tab Creator is intended to store guitar tab created through the tool. It currently does not support in-line text editing. Any text you place in here will be lost. If you need to comment on your tab, please use the "Tab Notes" section located below.