ibanezgator song idea1

(/) Slide Up  (\) Slide Down  (h) Hammer On  (p) Pull Off  (b) Bend (r) Release (v) Vibrato


E|------------------------------------------------------------------------------------------
B|------------------------------------------------------------------------------------------
G|------8-----8--------8--------8------10--8-------------8-----8--------8--------8------10--
D|--10--8-----8--------8--------8------10--8--8--8--8----8-----8--------8--------8------10--
A|--10--8h10-----8h10-----8h10-----10---------8--8--8----8h10-----8h10-----8h10-----10------
E|--8-----------------------------------------6--6--6---------------------------------------



E|-------8--6--6-------------------------8--6--6--------------------
B|-------8--6--6--9--9--9--9--11---------8--6--6--9--9--11--11--13--
G|-------8--8--7--8--8--8--8--10---------8--8--7--8--8--10--10--12--
D|-------8--8--8--6--6--6--6--8----------8--8--8--6--6--8---8---10--
A|------------------------------------------------------------------
E|--8-------------------------------8-------------------------------
http://www.guitartabcreator.com
Guitar Tab Creator is intended to store guitar tab created through the tool. It currently does not support in-line text editing. Any text you place in here will be lost. If you need to comment on your tab, please use the "Tab Notes" section located below.