Song

(/) Slide Up  (\) Slide Down  (h) Hammer On  (p) Pull Off  (b) Bend (r) Release (v) Vibrato

E|---------------------------------------------------------------------------------------
B|---------------------------------------------------------------------------------------
G|------------------------------------0------------0--0------------0--0------------0-----
D|---------9------9---------9------9---------9---------------9---------------9-----------
A|-----11-----11--------11-----11--------11--------------11--------------11--------------
E|--0----------------0----------------0---------0-----0---------0-----0---------0--------



E|--------------------------------------------0---
B|--------------------------------------------0---
G|------0------0------0------0------0------0--0---
D|--9------9------9------9------9------9------9---
A|--11-----11-----11-----11-----11-----11-----11--
E|--0------0------0------0------0------0------0---
http://www.guitartabcreator.com
Guitar Tab Creator is intended to store guitar tab created through the tool. It currently does not support in-line text editing. Any text you place in here will be lost. If you need to comment on your tab, please use the "Tab Notes" section located below.