Baracarolle

(/) Slide Up  (\) Slide Down  (h) Hammer On  (p) Pull Off  (b) Bend (r) Release (v) Vibrato

E|--5--7--7--5--|--5--7--7--5--|--5--7--7--5--|--5--7--7--5--|--5--7--7--5--|--
B|--7--7--7--7--|--7--7--7--7--|--7--7--7--7--|--8--8--8--8--|--8--8--8--8--|--
G|--7--7--7--7--|--7--7--7--7--|--7--7--7--7--|--6--6--6--6--|--6--6--6--6--|--
D|--------------|--------------|--------------|--------------|--------------|--
A|--5-----------|--5-----------|--5-----------|--------------|--------------|--
E|--------------|--------------|--------------|--5-----------|--5-----------|--



E|--5--7--7--5--|--5--7--7--5--|--5--7--7--5--|--5--7--7--5--|--5--7--7--5--|--
B|--7--7--7--7--|--7--7--7--7--|--8--8--8--8--|--8--8--8--8--|--7--7--7--7--|--
G|--7--7--7--7--|--7--7--7--7--|--6--6--6--6--|--6--6--6--6--|--7--7--7--7--|--
D|--------------|--------------|--------------|--------------|--------------|--
A|--5-----------|--5-----------|--------------|--------------|--5-----------|--
E|--------------|--------------|--5-----------|--5-----------|--------------|--



E|--5--7--7--5--|--5--7--7--5--|--5--7--7--5--|--5--7--7--5--|--5--7--7--5--|--
B|--7--7--7--7--|--8--8--8--8--|--8--8--8--8--|--7--7--7--7--|--7--7--7--7--|--
G|--7--7--7--7--|--6--6--6--6--|--6--6--6--6--|--7--7--7--7--|--7--7--7--7--|--
D|--------------|--------------|--------------|--------------|--------------|--
A|--5-----------|--------------|--------------|--5-----------|--5-----------|--
E|--------------|--5-----------|--5-----------|--------------|--------------|--



E|--5--7--7--5--|--5--7--7--5--|--5--7--7--5--|--5--7--7--5--|--5--7--7--5--|--
B|--8--8--8--8--|--8--8--8--8--|--7--7--7--7--|--7--7--7--7--|--7--7--7--7--|--
G|--6--6--6--6--|--6--6--6--6--|--7--7--7--7--|--5--5--5--5--|--5--5--5--5--|--
D|--------------|--------------|--------------|--------------|--------------|--
A|--------------|--------------|--5-----------|--5-----------|--5-----------|--
E|--5-----------|--5-----------|--------------|--------------|--------------|--



E|--5--7--7--5--|--7--8--8--7--|--7--9--9--7--|--7--9--9--7--|--7--9--9--7--|--
B|--7--7--7--7--|--------------|--9--9--9--9--|--9--9--9--9--|--9--9--9--9--|--
G|--5--5--5--5--|--7--7--7--7--|--7--7--7--7--|--7--7--7--7--|--7--7--7--7--|--
D|--------------|--5-----------|--------------|--------------|--------------|--
A|--5-----------|--------------|--------------|--------------|--------------|--
E|--------------|--------------|--7-----------|--7-----------|--7-----------|--



E|--5--7--7--5--|--5--7--7--5--|--5--7--7--5--|--5--7--7--5--|--5--7--7--5--|--
B|--5--5--5--5--|--7--7--7--7--|--8--8--8--8--|--7--7--7--7--|--8--8--8--8--|--
G|--6--6--6--6--|--8--8--8--8--|--6--6--6--6--|--8--8--8--8--|--6--6--6--6--|--
D|--------------|--------------|--------------|--------------|--------------|--
A|--------------|--------------|--------------|--------------|--------------|--
E|--5-----------|--5-----------|--5-----------|--5-----------|--5-----------|--



E|--5--7--7--5--|--5--7--7--5--|--5--7--7--5--|--5--7--7--5--|--5--7--7--5--|--
B|--5--8--8--8--|--7--7--7--7--|--8--8--8--8--|--8--8--8--8--|--7--7--7--7--|--
G|--6--6--6--6--|--7--7--7--7--|--6--6--6--6--|--6--6--6--6--|--7--7--7--7--|--
D|--------------|--------------|--------------|--------------|--------------|--
A|--------------|--5-----------|--------------|--------------|--------------|--
E|--5-----------|--------------|--5-----------|--5-----------|--5-----------|--



E|--5--7--7--5--|--5--7--7--5--|--5--7--7--5--|--5--7--7--5--|--7--9--9--7--|--
B|--7--7--7--7--|--8--8--8--8--|--8--8--8--8--|--7--7--7--7--|--8--8--8--8--|--
G|--7--7--7--7--|--6--6--6--6--|--6--6--6--6--|--8--8--8--8--|--9--9--9--9--|--
D|--------------|--------------|--------------|--------------|--------------|--
A|--5-----------|--------------|--------------|--------------|--------------|--
E|--------------|--5-----------|--5-----------|--5-----------|--7-----------|--



E|--5--7--7--5--|--5--7--7--5--|--5--7--7--5--|-----5--5-----|--5--5--5--5--|--
B|--7--7--7--7--|--8--8--8--8--|--7--7--7--7--|--8--------8--|--7--8--8--7--|--
G|--7--7--7--7--|--6--6--6--6--|--8--8--8--8--|--9--9--9--9--|--7--7--7--7--|--
D|--------------|--------------|--------------|--------------|--------------|--
A|--5-----------|--------------|--------------|--------------|--5-----------|--
E|--------------|--5-----------|--5-----------|--7-----------|--------------|--



E|--5--5--5--5--|--5--7--7--5--|--5--7--7--5--|--5--7--7--5--|--5--7--7--5--|--
B|--5--7--7--5--|--7--7--7--7--|--8--8--8--8--|--7--7--7--7--|--8--8--8--8--|--
G|--6--6--6--6--|--7--7--7--7--|--6--6--6--6--|--7--7--7--7--|--6--6--6--6--|--
D|--5--5--5--5--|--------------|--------------|--------------|--------------|--
A|--------------|--5-----------|--------------|--5-----------|--------------|--
E|--5-----------|--------------|--5-----------|--------------|--5-----------|--



E|--5--7--7--5--|--5--5--5--5--|--5--5--5--5--|--5--7--7--5--|--5--5--5--5--|--
B|--7--7--7--7--|--7--8--8--7--|--7--8--8--7--|--7--7--7--7--|--7--8--8--7--|--
G|--7--7--7--7--|--7--7--7--7--|--7--7--7--7--|--7--7--7--7--|--7--7--7--7--|--
D|--------------|--------------|--------------|--------------|--------------|--
A|--5-----------|--5-----------|--5-----------|--5-----------|--5-----------|--
E|--------------|--------------|--------------|--------------|--------------|--



E|--------------|-----|--
B|--7--8--7--5--|--7--|--
G|--7--7--7--7--|--7--|--
D|--7--7--7--7--|--7--|--
A|--5-----------|--5--|--
E|--------------|-----|--
http://www.guitartabcreator.com
Guitar Tab Creator is intended to store guitar tab created through the tool. It currently does not support in-line text editing. Any text you place in here will be lost. If you need to comment on your tab, please use the "Tab Notes" section located below.