Fears and Pains

(/) Slide Up  (\) Slide Down  (h) Hammer On  (p) Pull Off  (b) Bend (r) Release (v) Vibrato

E|------------------------------------------------------------------------------------------------
B|------------------------------------------------------------------------------------------------
G|---14---12---11---11---12---12---11---9---9---11---11---9---7---7---9---9---7---6---6---7-------
D|------------------------------------------------------------------------------------------------
A|------------------------------------------------------------------------------------------------
E|------------------------------------------------------------------------------------------------



E|-------------------------------------------------------------------
B|-------------------------------------------------------------------
G|---7---6---4---4---6---6---4---2---2---4---4---2---0---0---2---0---
D|-------------------------------------------------------------------
A|-------------------------------------------------------------------
E|-------------------------------------------------------------------



E|-------------------------------------------6---------------------------------------------
B|-5-5-6-5-5-7-5-5-6-5-5-7-5-5-6-5-5-7-5-6-5---5-5-6-5-5-7-5-5-6-5-5-7-5-5-6-5-5-7-5-6-5---
G|---------------------------------------------------------------------------------------6-
D|-----------------------------------------------------------------------------------------
A|-----------------------------------------------------------------------------------------
E|-----------------------------------------------------------------------------------------



E|--------------------------------------------------------
B|--------------------------------------------------------
G|--------------------------------------------------------
D|--------------------------------------------------------
A|--------------------------------------------------------
E|--0--0--7--0--6--0--5--0--4--3--0--0--7--0--6--0--5--4--



E|--------------------------------------------------------------------------------
B|--------------------------------------------------------------------------------
G|--------------------------------------------------------------------------------
D|--------------------------------------------------------------------------------
A|--------------------------------------------------------------------------------
E|--0--0--7--0--6--0--5--0--4--3--0--0--2--0--0--0--2--0--0--0--2--0--0--0--2--0--



E|-----------------------------------------------------------------------------------------
B|-----------------------------------------------------------------------------------------
G|-----------------------------------------------------------------------------------------
D|-----------------------------------------------------------------------------------------
A|-----------------------------------------------------------------------------------------
E|--0--0--7--0--6--0--5--0--4--0--0--7--0--6--0--5--0--4--0--0--2--0--0--0--2--0--0--0--2--



E|-----------------
B|-----------------
G|-----------------
D|-----------------
A|-----------------
E|--0--0--0--2--8--



E|-----------------------------------------------------------------
B|-----------------------------------------------------------------
G|-----------------------------------------------------------------
D|-----------------------------------------------------------------
A|-----------------------------------------------------------------
E|--0--0--0--0--0--0--0--2--3--2--0--0--0--0--0--0--0--2--3--2-----



E|-----------------------------
B|-----------------------------
G|-----------------------------
D|-----------------------------
A|-----------------------------
E|--0--6--6--5--4--3--2--2--8--



E|-------------------
B|-------------------
G|-------------------
D|-------------------
A|-------------------
E|---8---6---4---2---



E|-----------------------------------------------------------
B|-----------------------------------------------------------
G|-----------------------------------------------------------
D|-----------------------------------------------------------
A|-----------------------------------------------------------
E|--0--0--7--0--6--0--5--0--4--3--0--0--7--0--6--0--5--0--4--



E|--------------------------------------------------------------------------------
B|--------------------------------------------------------------------------------
G|--------------------------------------------------------------------------------
D|--------------------------------------------------------------------------------
A|--------------------------------------------------------------------------------
E|--0--0--7--0--6--0--5--0--4--3--0--0--2--0--0--0--2--0--0--0--2--0--0--0--2--0--



E|--------------------------------------------------------------------------------------
B|--------------------------------------------------------------------------------------
G|--------------------------------------------------------------------------------------
D|--------------------------------------------------------------------------------------
A|--------------------------------------------------------------------------------------
E|--0--0--7--0--6--0--5--0--4--0--0--7--0--6--0--5--0--4--0--2--0--0--0--2--0--0--0--2--



E|-----------------
B|-----------------
G|-----------------
D|-----------------
A|-----------------
E|--0--0--0--2--8--



E|--------------------------------------------------------------
B|--------------------------------------------------------------
G|--------------------------------------------------------------
D|--------------------------------------------------------------
A|--------------------------------------------------------------
E|--0--0--0--0--0--0--0--2--3--2--0--0--0--0--0--0--0--2--3--2--



E|-----------------------------
B|-----------------------------
G|-----------------------------
D|-----------------------------
A|-----------------------------
E|--0--6--6--5--4--3--2--2--6--



E|--------------------
B|--------------------
G|--------------------
D|--------------------
A|--------------------
E|---10---6---4---2---



E|-7-12-8-7-12-8-7-12-8-7-12-8-7-12-8-7-12-8-7-12-8-7-12-8-7-12-8-7-12-8-7-12-9-7-12-9-7-12-9-
B|--------------------------------------------------------------------------------------------
G|--------------------------------------------------------------------------------------------
D|--------------------------------------------------------------------------------------------
A|--------------------------------------------------------------------------------------------
E|--------------------------------------------------------------------------------------------



E|-7-12-9-7-12-9-7-12-9-7-12-9-7-12-9-7-12-9-7-12-9-7-12-8-7-12-8-7-12-8-7-12-8-7-12-8-7-12-8-
B|--------------------------------------------------------------------------------------------
G|--------------------------------------------------------------------------------------------
D|--------------------------------------------------------------------------------------------
A|--------------------------------------------------------------------------------------------
E|--------------------------------------------------------------------------------------------



E|-7-12-8-7-12-8-7-12-8-7-12-8-7-12-9-7-12-9-7-12-9-7-12-10-7-12-10-7-12-10-7-12-9-7-12-9-7-12-9-
B|-----------------------------------------------------------------------------------------------
G|-----------------------------------------------------------------------------------------------
D|-----------------------------------------------------------------------------------------------
A|-----------------------------------------------------------------------------------------------
E|-----------------------------------------------------------------------------------------------



E|-7-12-8-7-12-8-7-12-8-7-12-8-7-12-8-7-12-8-7-12-8-7-12-8-7-12-8-7-12-8-7-12-9-7-12-9-7-12-9-
B|--------------------------------------------------------------------------------------------
G|--------------------------------------------------------------------------------------------
D|--------------------------------------------------------------------------------------------
A|--------------------------------------------------------------------------------------------
E|--------------------------------------------------------------------------------------------



E|-7-12-9-7-12-9-7-12-9-7-12-9-7-12-9-7-12-9-7-12-9-7-12-8-7-12-8-7-12-8-7-12-8-7-12-8-7-12-8-
B|--------------------------------------------------------------------------------------------
G|--------------------------------------------------------------------------------------------
D|--------------------------------------------------------------------------------------------
A|--------------------------------------------------------------------------------------------
E|--------------------------------------------------------------------------------------------



E|-7-12-8-7-12-8-7-12-8-7-12-8-7-12-9-7-12-9-7-12-9-7-12-10-7-12-10-7-12-10-9-
B|----------------------------------------------------------------------------
G|----------------------------------------------------------------------------
D|----------------------------------------------------------------------------
A|----------------------------------------------------------------------------
E|----------------------------------------------------------------------------



E|----------------------------------------------------------------------------------------------
B|--10--10--12--10--10--12--10--10--12--10--13--10--10--10--12--10--10--12--10--10--12--10------
G|------------------------------------------------------------------------------------------12--
D|----------------------------------------------------------------------------------------------
A|----------------------------------------------------------------------------------------------
E|----------------------------------------------------------------------------------------------



E|----------12------------------------------12------------------------------12--------------12-----
B|------14------14------14------14------14------14------14------14------14------14------14---------
G|--13--------------13------13------13--------------13------13------12--------------12-------------
D|-------------------------------------------------------------------------------------------------
A|-------------------------------------------------------------------------------------------------
E|-------------------------------------------------------------------------------------------------



E|----------12------------------------------12------------------------------12-----------------
B|------14------14------14------14------14------14------14------14------14------14------14-----
G|--12--------------12------12------11--------------11------11------11--------------11---------
D|---------------------------------------------------------------------------------------------
A|---------------------------------------------------------------------------------------------
E|---------------------------------------------------------------------------------------------



E|--
B|--
G|--
D|--
A|--
E|--



E|------------------12------------------------------12--------------------------
B|------14------14------14------14------14------14------14------14------14------
G|--11------10--------------10------10------10--------------10------10------10--
D|------------------------------------------------------------------------------
A|------------------------------------------------------------------------------
E|------------------------------------------------------------------------------



E|------------------------------------------------------------------------------
B|------------------------------------------------------------------------------
G|--13--11--13--11--10--8--10--8--8--6--8--6--6--4--6--4------------------------
D|--------------------------------------------------------5--9--7--5--9--7--11--
A|------------------------------------------------------------------------------
E|------------------------------------------------------------------------------



E|----------------------------
B|----------------------------
G|----------------------------
D|----11----12----14----15----
A|----------------------------
E|----------------------------



E|-------------------------------------------------
B|-15-14-12-14-12----12----------------------------
G|----------------14----14-12-11-------------------
D|-------------------------------14-12-11----------
A|----------------------------------------14-12-11-
E|-------------------------------------------------



E|---------------------------
B|---------------------------
G|---------------------------
D|---------------------------
A|---------------------------
E|--14--13--12--10--9--------
http://www.guitartabcreator.com
Guitar Tab Creator is intended to store guitar tab created through the tool. It currently does not support in-line text editing. Any text you place in here will be lost. If you need to comment on your tab, please use the "Tab Notes" section located below.