Song

(/) Slide Up  (\) Slide Down  (h) Hammer On  (p) Pull Off  (b) Bend (r) Release (v) Vibrato

E|-----------------
B|-----6--8--6--4--
G|--9--6--8--6--4--
D|--9--4--6--4--2--
A|--7--------------
E|-----------------



E|-----------
B|--9--6--4--
G|--9--6--4--
D|--7--4--2--
A|-----------
E|-----------



E|-----------------------------------------
B|-----------6--8--6--4--------------------
G|--9--6--4--6--8--6--4--9--6--4--0--6--4--
D|--9--6--4--4--6--4--2--9--6--4--0--6--4--
A|--7--4--2--------------7--4--2--0--4--2--
E|-----------------------------------------



E|-----------
B|-----------
G|--0--6--4--
D|--0--6--4--
A|--0--4--2--
E|-----------



E|-----------------
B|-----------------
G|--4--6-----------
D|--4--6--0--6--4--
A|--2--4--0--6--4--
E|--------0--4--2--



E|-----------
B|-----------
G|-----------
D|--0--6--4--
A|--0--6--4--
E|--0--4--2--



E|-----------------------------------------
B|-----------------6-----------------------
G|--9--6--4--9--6--6--9--6--0--4--9--6--4--
D|--9--6--4--9--6--4--9--6--0--4--9--6--4--
A|--7--4--2--7--4-----7--4--0--2--7--4--2--
E|-----------------------------------------



E|-----------
B|-----------
G|--0--6--4--
D|--0--6--4--
A|--0--4--2--
E|-----------



E|-----------------
B|-----------------
G|--4--6-----------
D|--4--6--0--6--4--
A|--2--4--0--6--4--
E|--------0--4--2--



E|-----------
B|-----------
G|-----------
D|--0--6--4--
A|--0--6--4--
E|--0--4--2--



E|-----------------------------------------
B|-----------------6-----------6--8--6--4--
G|--9--6--4--9--6--6--9--6--4--6--8--6--4--
D|--9--6--4--9--6--4--9--6--4--4--6--4--2--
A|--7--4--2--7--4-----7--4--2--------------
E|-----------------------------------------
http://www.guitartabcreator.com
Guitar Tab Creator is intended to store guitar tab created through the tool. It currently does not support in-line text editing. Any text you place in here will be lost. If you need to comment on your tab, please use the "Tab Notes" section located below.