my song

(/) Slide Up  (\) Slide Down  (h) Hammer On  (p) Pull Off  (b) Bend (r) Release (v) Vibrato
E|-----------0---------------------3-----------------------------------------------------
B|--------------3--1------------------5--3--------------------5-------5-------5\1-----1--
G|--------2---------------------5---------------------7--5-------5-------7---------2-----
D|-----2---------------------5---------------------7-------------------------------------
A|--0---------------------3---------------------5----------------------------------------
E|---------------------------------------------------------------------------------------



E|---------------------------------------------------------------------------------------------
B|---------------------------------------------------------------------------------------------
G|--5----------5----------7----7-------5-------4/5----4----------4----------5--5-----2----2/3--
D|--7----------7----------7----7-------7-------7------5----------5----------5--5-----3----3----
A|-------0--0-----0--0------------0---------0--------------0--0-----0--0----------0------------
E|---------------------------------------------------------------------------------------------



E|-----------0-----------------------3------------------------------------5--------7--------8--------
B|--------------3--1--------------------5--3----------------------7----------5--------5--------------
G|--------2-----------2--0--------5-----------5--4--------7--5-------7----------5--------5-----5-----
D|-----2-----------------------5-----------------------7---------------------------------------------
A|--0-----------------------3-----------------------5------------------------------------------------
E|---------------------------------------------------------------------------------------------------



E|-----------0--------1--------3--------1--------0-----3--
B|--------------2--------2--------2--------2--------------
G|--------2--------2--------2--------2--------2-----2-----
D|-----2--------------------------------------------------
A|--0-----------------------------------------------------
E|--------------------------------------------------------



E|-----------3--------1--------0--------1--------3-----1--
B|--------------2--------2--------2--------2--------------
G|--------2--------2--------2--------2--------2-----2-----
D|-----2--------------------------------------------------
A|--0-----------------------------------------------------
E|--------------------------------------------------------



E|------------------------------------------------------------------------------------
B|------------------------------------------------------------------------------------
G|--2----------7\5-----------------------------------------7\5----3----3--------------
D|--2----------7-5--5----5--5--5--5--5--5--5----2----------7-5----3----3-----5--------
A|--0----0--0--5-3--5----5--5--5--5--5--5--5----2----------5-3----1----1--1--5--------
E|------------------3----3--3--3--3--3--3--3----0----0--0--------------------3--------



E|----------------------------------------------------------------------------------------
B|----------------------------------------------------------------------------------------
G|--2-----7-5-----------------------------------------7-5-------5/7-------4/5-------2--4--
D|--2-----7-5-------3-5----5--5--5--5--5--5--5--2-----7-5-------5-7-------4-5-------2--4--
A|--0--0--5\3-------3-5----5--5--5--5--5--5--5--2-----5\3-------3-5-------2-3-------------
E|---------------0--1/3----3--3--3--3--3--3--3--0--0---------0---------0---------0--------



E|----------------------------------------------------------
B|-------------5-------------5-----------5-----------5-7/8--
G|-------------5-------------5-----------5-----------5/7-8--
D|--7----7--7-------7--7--7-----7--7--7-----7--7--7---------
A|----------------------------------------------------------
E|----------------------------------------------------------
http://www.guitartabcreator.com
Guitar Tab Creator is intended to store guitar tab created through the tool. It currently does not support in-line text editing. Any text you place in here will be lost. If you need to comment on your tab, please use the "Tab Notes" section located below.