blackheart

(/) Slide Up  (\) Slide Down  (h) Hammer On  (p) Pull Off  (b) Bend (r) Release (v) Vibrato
E|-----------------------------------------------------------------------------------------------------------------
B|-----------------------------------------------------------------------------------------------------------------
G|-----------------------------------------------------------------------------------------------------------------
D|---------------------7----7--7----7--5----7--5----------3---------------3-----------------------2----------------
A|-----5----5--5----8-----------------------------5----5-------5--5----5-------5--5----5--3----5----------3--5-----
E|--5------------------------------------------------------------------------------------------------5-------------



E|-----------------------------------------------------------------------------------------------------------------
B|-----------------------------------------------------------------------------------------------------------------
G|-----------------------------------------------------------------------------------------------------------------
D|---------------------7----7--7----7--5----7--5----------3---------------5----7--5----------3-------3-----2-------
A|-----5----5--5----8-----------------------------5----5-------5--5----5-------------5----5-------5-----5-----5----
E|--5--------------------------------------------------------------------------------------------------------------



E|--------------------------------------------------------------------------------------------------------------
B|--16--16----15--14--14----15--16--16----15--14--14----15--16--16----15--14--14--------15--15----14--15--15----
G|----------------------------------------------------------------------------------14--------------------------
D|--------------------------------------------------------------------------------------------------------------
A|--------------------------------------------------------------------------------------------------------------
E|--------------------------------------------------------------------------------------------------------------



E|------14--14----15--17--17------------------------------
B|--15----------------------------------------------------
G|------------------------------7--5--7--5--7--5--8----7--
D|--------------------------------------------------------
A|--------------------------------------------------------
E|--------------------------------------------------------



E|--------------------------------------------------------------
B|------------------------------8-------------------------------
G|--7--9--10--9--7----7--9--10-----10--9--7----------7--9-------
D|-------------------------------------------10--10--------7----
A|--------------------------------------------------------------
E|--------------------------------------------------------------



E|----------------------------------------------------------------
B|----------------------------6-----------------------------------
G|--5--7--9--7--5----5--7--9-----7p5--5b5--3--3\2--0----5/7--7/9--
D|----------------------------------------------------------------
A|----------------------------------------------------------------
E|----------------------------------------------------------------



E|-----------------------------------------------------------
B|------------------------------8--------------------------9b
G|--7--9--10--9--7----7--9--10-----10--9--7----------7--9----
D|-------------------------------------------10--10----------
A|-----------------------------------------------------------
E|-----------------------------------------------------------



E|--------------------------------------------------------------------------------------------------------12--13------13--15--17--19-----
B|--------------------------------------------------------------------------------10--12--10--12--13--15----------17---------------------
G|--9--10--12--10--9--9--10--9----------------------------------9------9--10--12---------------------------------------------------------
D|--------------------------------12--10--9----------9--10--12-----12--------------------------------------------------------------------
A|-------------------------------------------10--12--------------------------------------------------------------------------------------
E|---------------------------------------------------------------------------------------------------------------------------------------



E|-------------------------------------------------------------------------------------------
B|--10--12--13--10h12p10------10--12--13--10h12p10------8--10--12--10--8----10--8------------
G|---------------------------------------------------------------------------------9--7------
D|---------------------------------------------------------------------------------------10--
A|-------------------------------------------------------------------------------------------
E|-------------------------------------------------------------------------------------------



E|-------------------------------------------------------------
B|-------------------------------------------------------------
G|--------------------------9--7---------------------10--9--7--
D|--7--9--10--7--9--10--10--------10--9--7--10b----------------
A|-------------------------------------------------------------
E|-------------------------------------------------------------



E|-------------------------------------------------------------------10--12--10--------------
B|--10--12--13--12--10----10--12--13--12--10-------------10--12--13--------------13--11--10--
G|--------------------------------------------12--9--12--------------------------------------
D|-------------------------------------------------------------------------------------------
A|-------------------------------------------------------------------------------------------
E|-------------------------------------------------------------------------------------------



E|--------------------------------------------------------------------------13----------------13--------
B|------------------------------------------------------13--15--13--15--17--------17--15--13------------
G|----------------------12------12--14--12--14--16--14--------------------------------------------------
D|--12--14--15--14--15------15--------------------------------------------------------------------------
A|------------------------------------------------------------------------------------------------------
E|------------------------------------------------------------------------------------------------------



E|--13----------------------13----15--13--------------------------------------------------------
B|----------15------15--17----------------17--15--13--------15----15--13------------------------
G|----------------------------------------------------15--------------------15--14--12----------
D|--------------------------------------------------------------------------------------15--14--
A|----------------------------------------------------------------------------------------------
E|----------------------------------------------------------------------------------------------



E|--13--------------------13----15--13--------------------------13--------13--12----------------------13----13--17--12------
B|----------15----15--17----------------17--15--13--------15--------15------------15--14--15--15--17--------------------13--
G|--------------------------------------------------15----------------------------------------------------------------------
D|--------------------------------------------------------------------------------------------------------------------------
A|--------------------------------------------------------------------------------------------------------------------------
E|--------------------------------------------------------------------------------------------------------------------------



E|--10----8----------------------------------------------------------10--8------------------------------------------------------------------------------------
B|-----------11--10----8------------------------------------------------------11--10--8-------------------------8-----------------------8---------------------
G|------------------------10--9----7--9--10----9--7--9----7--9--7--------------------------10--9--7----9--10-------10--9----7--9--10-------10--9----7------7--
D|-----------------------------------------------------------------------------------------------------------------------------------------------------10-----
A|------------------------------------------------------------------------------------------------------------------------------------------------------------
E|------------------------------------------------------------------------------------------------------------------------------------------------------------
http://www.guitartabcreator.com
Guitar Tab Creator is intended to store guitar tab created through the tool. It currently does not support in-line text editing. Any text you place in here will be lost. If you need to comment on your tab, please use the "Tab Notes" section located below.