New Song

(/) Slide Up  (\) Slide Down  (h) Hammer On  (p) Pull Off  (b) Bend (r) Release (v) Vibrato

E|----------------------------------------------------------------------------------
B|----------10------10------------------------------10------10----------------------
G|------12------------------10--12------12------12------------------10--12------12--
D|--12----------12------10----------10------12----------12------10----------10------
A|----------------------------------------------------------------------------------
E|----------------------------------------------------------------------------------



E|----------------------------------------------------------------------------------
B|----------10------10------------------------------10------10----------------------
G|------12------------------10--12------12------12------------------10--12------12--
D|--12----------12------10----------10------12----------12------10----------10------
A|----------------------------------------------------------------------------------
E|----------------------------------------------------------------------------------



E|-------------12----------------------------------------------
B|---------10-------------8------------------------------------
G|------9--------------7---------------------------------------
D|-----------------10-----------8--10------10--12----------10--
A|--10-----------------------8---------10--------------10------
E|-------------------------------------------------10----------



E|--------------------------
B|--------------------------
G|----------12--------------
D|--12--10--12--10--12--10--
A|--12--10--10--10--12--10--
E|--10--10--10--10--10--10--



E|--------------------
B|--------------------
G|--------7--5--------
D|--7--5--7--5--7--5--
A|--7--5--5--5--7--5--
E|--5--5--5--5--5--5--



E|-----------------------
B|-----------------------
G|---------10------------
D|--10--8--10--8--10--8--
A|--10--8--8---8--10--8--
E|--8---8--8---8--8---8--
http://www.guitartabcreator.com
Guitar Tab Creator is intended to store guitar tab created through the tool. It currently does not support in-line text editing. Any text you place in here will be lost. If you need to comment on your tab, please use the "Tab Notes" section located below.