red roses

(/) Slide Up  (\) Slide Down  (h) Hammer On  (p) Pull Off  (b) Bend (r) Release (v) Vibrato
E|------------------------------------------------------------------------------------------------------------------------------------
B|--10--9--10--9--10--9--14--12--10--9--10--9--10--9--10--9--14--12--10--9--10--9--10--9--10--9--14--12--10--9--10--9--7--5--7--5-----
G|------------------------------------------------------------------------------------------------------------------------------------
D|------------------------------------------------------------------------------------------------------------------------------------
A|------------------------------------------------------------------------------------------------------------------------------------
E|------------------------------------------------------------------------------------------------------------------------------------



E|-----------------------------------------------------------------------------------------------------------------------
B|--10--9--10--9--10--9--14--12--10--9--10--9--10--9--10--9--7--9--10--14--10--9--10--7--7--9--10--12--14--10--9--10--5--
G|-----------------------------------------------------------------------------------------------------------------------
D|-----------------------------------------------------------------------------------------------------------------------
A|-----------------------------------------------------------------------------------------------------------------------
E|-----------------------------------------------------------------------------------------------------------------------



E|--------------------------------------------------------------------------
B|--------------------------------------------------------------------------
G|--------------------------------------------------------------------------
D|--------9--------9--------9--------9--------5--------5--------5--------5--
A|-----9-----9--9--------9-----9--9--------5-----5--5--------5-----5--5-----
E|--7-----------------7-----------------3-----------------3-----------------



E|----------------------------------------------------------------------------------------------------
B|--10--10--13--11--10--8------8------8--9---------------------10--13--11--10--8------8---------------
G|-------------------------10-----10----------------9--10--12---------------------10-----9--10--9--7--
D|------------------------------------------10--12----------------------------------------------------
A|----------------------------------------------------------------------------------------------------
E|----------------------------------------------------------------------------------------------------
http://www.guitartabcreator.com
Guitar Tab Creator is intended to store guitar tab created through the tool. It currently does not support in-line text editing. Any text you place in here will be lost. If you need to comment on your tab, please use the "Tab Notes" section located below.