Black and White

D|----------------------------------------------------------
B|-----------------0-----0--0h1--0--------------------------
G|--0-----------0-----0-------------2--0-----0-----0--------
D|-----0--2--4----------------------------2-----2-----2--0--
G|----------------------------------------------------------



D|----------------0-----------------0--------0--------0--
B|-------0-----0-----1--0--------------0--------0--------
G|--0h2-----0--------------2--0--2--------2--------2-----
D|-------------------------------------------------------
G|-------------------------------------------------------



D|---------------------------------------------------
B|----------0-----0--0h1--0--------------------------
G|-------0-----0-------------2--0-----0-----0--------
D|--0h2----------------------------2-----2-----2--0--
G|---------------------------------------------------



D|-------------------0-----------0---------------
B|-------1--0-----------1--0------------------0--
G|--0h2--------2--0--0--------0----------0h2-----
D|----------------------0--0--0-----0h2----------
G|-------------------------------0---------------
Guitar Tab Creator is intended to store guitar tab created through the tool. It currently does not support in-line text editing. Any text you place in here will be lost. If you need to comment on your tab, please use the "Tab Notes" section located below.