Filthy Boy - Mental Conditions

(/) Slide Up  (\) Slide Down  (h) Hammer On  (p) Pull Off  (b) Bend (r) Release (v) Vibrato

E|-8----8-7-5----8-7-5----8-7----7-8-5--12-10-8--12-10------------------------------------------------
B|-8----------8--------8------8-----------------------------------------------------------------------
G|-9--------------------------------------------------------------------------------------------------
D|-10-------------------------------------------------------------------------------------------------
A|----------------------------------------------------------------------------------------------------
E|----------------------------------------------------------------------------------------------------



E|-8--8----8--8--8----10-10-10---8--8-----------------------------------------------------------------
B|-8--8----8--8--8----10-10-10---8--8-----------------------------------------------------------------
G|-9--9----9--9--9----11-11-11---10-10----------------------------------------------------------------
D|-10-10---10-10-10---12-12-12---10-10----------------------------------------------------------------
A|----------------------------------------------------------------------------------------------------
E|----------------------------------------------------------------------------------------------------



E|-8--8----8--8--8----9--10-10---12-13-13---14-15-15-15-15--------------------------------------------
B|-8--8----8--8--8----9--10-10---12-13-13---14-15-15-15-15--------------------------------------------
G|-9--9----9--9--9----10-11-11---13-14-14---15-16-16-16-16--------------------------------------------
D|-10-10---10-10-10---11-12-12---14-15-15---16-17-17-17-17--------------------------------------------
A|----------------------------------------------------------------------------------------------------
E|----------------------------------------------------------------------------------------------------



E|--------------------------------------------------------------------------------------------------
B|-6--8-10--12-13-------------------10--12-13-12-10-12-15-13----------------------------------------
G|------------------5-7-9-12-10--12-----------------------------------------------------------------
D|--------------------------------------------------------------------------------------------------
A|--------------------------------------------------------------------------------------------------
E|--------------------------------------------------------------------------------------------------



E|--------------------------------------------------------------------------------------------------
B|-6--8-10--12-13-12-10-5-8---6--8-10-8--12-10-8---0------------------------------------------------
G|-----------------------------------------------8--------------------------------------------------
D|--------------------------------------------------------------------------------------------------
A|--------------------------------------------------------------------------------------------------
E|--------------------------------------------------------------------------------------------------



E|-
B|-
G|-
D|-
A|-
E|-
http://www.guitartabcreator.com
Guitar Tab Creator is intended to store guitar tab created through the tool. It currently does not support in-line text editing. Any text you place in here will be lost. If you need to comment on your tab, please use the "Tab Notes" section located below.