Of Monsters and Men - Little Talks (Cover by Aaron Nogan)

(/) Slide Up  (\) Slide Down  (h) Hammer On  (p) Pull Off  (b) Bend (r) Release (v) Vibrato

E|-----------3p0-----------0-----------3p0-----------0-----------3p0-----------0--
B|-----1-------------1-----------1-------------1-----------1-------------1--------
G|--------2-------------2-----------2-------------2-----------0-------------0-----
D|----------------2-------------------------3-------------------------2-----------
A|--0---------------------------------------------------3-------------------------
E|----------------------------1---------------------------------------------------



E|-----------3p0-----------0--
B|-----0-------------0--------
G|--------0-------------0-----
D|----------------0-----------
A|----------------------------
E|--3-------------------------
http://www.guitartabcreator.com
Guitar Tab Creator is intended to store guitar tab created through the tool. It currently does not support in-line text editing. Any text you place in here will be lost. If you need to comment on your tab, please use the "Tab Notes" section located below.