Distance

(/) Slide Up  (\) Slide Down  (h) Hammer On  (p) Pull Off  (b) Bend (r) Release (v) Vibrato


E|-----------------|-----------------|--------------------|------------------|-----------------|---
B|-----------------|-----------------|--------------------|------------------|-----------------|---
G|-----------------|-----------------|--------------------|------------------|-----------------|---
D|-----7-----7---7-|-----9-----9---9-|-----10-----10---10-|-----9---10---9---|-----7-----7---7-|---
A|-3-3---3-3---3---|-5-5---5-5---5---|-7-7----7-7----7----|-7-7---7----7---7-|-3-3---3-3---3---|---
E|-----------------|-----------------|--------------------|------------------|-----------------|---



E|-----------------|--------------------|-
B|-----------------|--------------------|-
G|-----------------|--------------------|-
D|-----9-----9---9-|---------10-10-10---|-
A|-5-5---5-5---5---|-7-7-7-7----------7-|-
E|-----------------|--------------------|-



E|--------------------------|-
B|--------------------------|-
G|--------------------------|-
D|-3-5-10-10-10-10-9-9-10-9-|-
A|-3-5-7--7--7--7--7-7-7--7-|-
E|-3-5-7--7--7--7--7-7-7--7-|-



E|-----------------------------|---------|-
B|-----------------------------|---------|-
G|-----------------------------|---------|-
D|-3-----3-----5-5-5-5-2-3-2-0-|-2-3-2-3-|-
A|-3---------------------------|-3-3-3-3-|-
E|-3-3-3---3-3-----------------|-2-3-2-3-|-



E|--------------------|-
B|---0----------------|-
G|--------------------|-
D|-2---10-9-9h10p9\7v-|-
A|-3------------------|-
E|-2------------------|-
http://www.guitartabcreator.com
Guitar Tab Creator is intended to store guitar tab created through the tool. It currently does not support in-line text editing. Any text you place in here will be lost. If you need to comment on your tab, please use the "Tab Notes" section located below.